  0
SECTION
  2
HEADER
  9
$ACADVER
  1
AC1009
  9
$INSBASE
 10
0.0
 20
0.0
 30
0.0
  9
$EXTMIN
 10
8.429578
 20
5.135342
 30
0.0
  9
$EXTMAX
 10
37.200844
 20
26.640361
 30
0.0
  9
$LIMMIN
 10
0.0
 20
0.0
  9
$LIMMAX
 10
44.0
 20
34.0
  9
$ORTHOMODE
 70
     0
  9
$REGENMODE
 70
     1
  9
$FILLMODE
 70
     1
  9
$QTEXTMODE
 70
     0
  9
$MIRRTEXT
 70
     1
  9
$DRAGMODE
 70
     2
  9
$LTSCALE
 40
1.0
  9
$OSMODE
 70
     0
  9
$ATTMODE
 70
     1
  9
$TEXTSIZE
 40
0.375
  9
$TRACEWID
 40
0.05
  9
$TEXTSTYLE
  7
ROMAND
  9
$CLAYER
  8
0
  9
$CELTYPE
  6
BYLAYER
  9
$CECOLOR
 62
   256
  9
$DIMSCALE
 40
1.0
  9
$DIMASZ
 40
0.25
  9
$DIMEXO
 40
0.0625
  9
$DIMDLI
 40
0.38
  9
$DIMRND
 40
0.0
  9
$DIMDLE
 40
0.0
  9
$DIMEXE
 40
0.18
  9
$DIMTP
 40
0.0
  9
$DIMTM
 40
0.0
  9
$DIMTXT
 40
0.18
  9
$DIMCEN
 40
0.09
  9
$DIMTSZ
 40
0.0
  9
$DIMTOL
 70
     0
  9
$DIMLIM
 70
     0
  9
$DIMTIH
 70
     1
  9
$DIMTOH
 70
     1
  9
$DIMSE1
 70
     0
  9
$DIMSE2
 70
     0
  9
$DIMTAD
 70
     0
  9
$DIMZIN
 70
     0
  9
$DIMBLK
  1

  9
$DIMASO
 70
     1
  9
$DIMSHO
 70
     0
  9
$DIMPOST
  1

  9
$DIMAPOST
  1

  9
$DIMALT
 70
     0
  9
$DIMALTD
 70
     2
  9
$DIMALTF
 40
25.4
  9
$DIMLFAC
 40
1.0
  9
$DIMTOFL
 70
     0
  9
$DIMTVP
 40
0.0
  9
$DIMTIX
 70
     0
  9
$DIMSOXD
 70
     0
  9
$DIMSAH
 70
     0
  9
$DIMBLK1
  1

  9
$DIMBLK2
  1

  9
$DIMSTYLE
  2
*UNNAMED
  9
$DIMCLRD
 70
     0
  9
$DIMCLRE
 70
     0
  9
$DIMCLRT
 70
     0
  9
$DIMTFAC
 40
1.0
  9
$DIMGAP
 40
0.09
  9
$LUNITS
 70
     4
  9
$LUPREC
 70
     4
  9
$SKETCHINC
 40
0.1
  9
$FILLETRAD
 40
0.0
  9
$AUNITS
 70
     0
  9
$AUPREC
 70
     0
  9
$MENU
  1
acad
  9
$ELEVATION
 40
0.0
  9
$PELEVATION
 40
0.0
  9
$THICKNESS
 40
0.0
  9
$LIMCHECK
 70
     0
  9
$BLIPMODE
 70
     1
  9
$CHAMFERA
 40
0.0
  9
$CHAMFERB
 40
0.0
  9
$SKPOLY
 70
     0
  9
$TDCREATE
 40
2449741.728116203
  9
$TDUPDATE
 40
2450162.469347222
  9
$TDINDWG
 40
0.0085613426
  9
$TDUSRTIMER
 40
0.0085613426
  9
$USRTIMER
 70
     1
  9
$ANGBASE
 50
0.0
  9
$ANGDIR
 70
     0
  9
$PDMODE
 70
     0
  9
$PDSIZE
 40
0.0
  9
$PLINEWID
 40
0.0
  9
$COORDS
 70
     2
  9
$SPLFRAME
 70
     0
  9
$SPLINETYPE
 70
     6
  9
$SPLINESEGS
 70
     8
  9
$ATTDIA
 70
     0
  9
$ATTREQ
 70
     1
  9
$HANDLING
 70
     0
  9
$HANDSEED
  5
0
  9
$SURFTAB1
 70
     6
  9
$SURFTAB2
 70
     6
  9
$SURFTYPE
 70
     6
  9
$SURFU
 70
     6
  9
$SURFV
 70
     6
  9
$UCSNAME
  2

  9
$UCSORG
 10
0.0
 20
0.0
 30
0.0
  9
$UCSXDIR
 10
1.0
 20
0.0
 30
0.0
  9
$UCSYDIR
 10
0.0
 20
1.0
 30
0.0
  9
$PUCSNAME
  2

  9
$PUCSORG
 10
0.0
 20
0.0
 30
0.0
  9
$PUCSXDIR
 10
1.0
 20
0.0
 30
0.0
  9
$PUCSYDIR
 10
0.0
 20
1.0
 30
0.0
  9
$USERI1
 70
     0
  9
$USERI2
 70
     0
  9
$USERI3
 70
     0
  9
$USERI4
 70
     0
  9
$USERI5
 70
     0
  9
$USERR1
 40
0.0
  9
$USERR2
 40
0.0
  9
$USERR3
 40
0.0
  9
$USERR4
 40
0.0
  9
$USERR5
 40
0.0
  9
$WORLDVIEW
 70
     1
  9
$SHADEDGE
 70
     3
  9
$SHADEDIF
 70
    70
  9
$TILEMODE
 70
     1
  9
$MAXACTVP
 70
    16
  9
$PINSBASE
 10
0.0
 20
0.0
 30
0.0
  9
$PLIMCHECK
 70
     0
  9
$PEXTMIN
 10
1.000000E+20
 20
1.000000E+20
 30
1.000000E+20
  9
$PEXTMAX
 10
-1.000000E+20
 20
-1.000000E+20
 30
-1.000000E+20
  9
$PLIMMIN
 10
0.0
 20
0.0
  9
$PLIMMAX
 10
12.0
 20
9.0
  9
$UNITMODE
 70
     0
  9
$VISRETAIN
 70
     0
  9
$PLINEGEN
 70
     0
  9
$PSLTSCALE
 70
     0
  9
$TREEDEPTH
 70
  3020
  9
$DWGCODEPAGE
  3
undefined
  0
ENDSEC
  0
SECTION
  2
TABLES
  0
TABLE
  2
VPORT
 70
     2
  0
VPORT
  2
*ACTIVE
 70
     0
 10
0.0
 20
0.0
 11
1.0
 21
1.0
 12
30.047619
 22
17.0
 13
0.0
 23
0.0
 14
1.0
 24
1.0
 15
0.0
 25
0.0
 16
0.0
 26
0.0
 36
1.0
 17
0.0
 27
0.0
 37
0.0
 40
34.0
 41
1.767507
 42
50.0
 43
0.0
 44
0.0
 50
0.0
 51
0.0
 71
     0
 72
   100
 73
     1
 74
     1
 75
     0
 76
     0
 77
     0
 78
     0
  0
ENDTAB
  0
TABLE
  2
LTYPE
 70
     3
  0
LTYPE
  2
CONTINUOUS
 70
    64
  3
Solid line
 72
    65
 73
     0
 40
0.0
  0
LTYPE
  2
HIDDEN
 70
    64
  3
_ _ _ _ _ _ _ _ _ _ _ _ _ _ _ _ _ _ _ _ _ _ _
 72
    65
 73
     2
 40
0.375
 49
0.25
 49
-0.125
  0
LTYPE
  2
DASHED
 70
     0
  3
__ __ __ __ __ __ __ __ __ __ __ __ __ __ __
 72
    65
 73
     2
 40
0.75
 49
0.5
 49
-0.25
  0
ENDTAB
  0
TABLE
  2
LAYER
 70
     7
  0
LAYER
  2
0
 70
    64
 62
     7
  6
CONTINUOUS
  0
LAYER
  2
DIM
 70
    64
 62
     6
  6
CONTINUOUS
  0
LAYER
  2
PANEL
 70
    64
 62
     4
  6
CONTINUOUS
  0
LAYER
  2
WOOD
 70
    64
 62
     2
  6
CONTINUOUS
  0
LAYER
  2
CLIP
 70
    64
 62
     9
  6
CONTINUOUS
  0
LAYER
  2
FLASH
 70
    64
 62
     5
  6
CONTINUOUS
  0
LAYER
  2
BRICK
 70
    64
 62
     1
  6
CONTINUOUS
  0
ENDTAB
  0
TABLE
  2
STYLE
 70
     2
  0
STYLE
  2
STANDARD
 70
     0
 40
0.0
 41
1.0
 50
0.0
 71
     0
 42
0.2
  3
txt
  4

  0
STYLE
  2
ROMAND
 70
    64
 40
0.375
 41
1.0
 50
0.0
 71
     0
 42
0.375
  3
romand
  4

  0
ENDTAB
  0
TABLE
  2
VIEW
 70
     0
  0
ENDTAB
  0
TABLE
  2
UCS
 70
     0
  0
ENDTAB
  0
TABLE
  2
APPID
 70
     1
  0
APPID
  2
ACAD
 70
    64
  0
ENDTAB
  0
TABLE
  2
DIMSTYLE
 70
     0
  0
ENDTAB
  0
ENDSEC
  0
SECTION
  2
BLOCKS
  0
BLOCK
  8
0
  2
*X0
 70
    65
 10
0.0
 20
0.0
 30
0.0
  3
*X
  0
LINE
  8
0
 62
     0
 10
10.088127
 20
16.452088
 30
0.0
 11
11.68958
 21
18.053541
 31
0.0
  0
LINE
  8
0
 62
     0
 10
9.027466
 20
16.452088
 30
0.0
 11
11.027466
 21
18.452088
 31
0.0
  0
LINE
  8
0
 62
     0
 10
8.68958
 20
17.174862
 30
0.0
 11
9.966806
 21
18.452088
 31
0.0
  0
LINE
  8
0
 62
     0
 10
8.68958
 20
18.235522
 30
0.0
 11
8.906146
 21
18.452088
 31
0.0
  0
LINE
  8
0
 62
     0
 10
11.148787
 20
16.452088
 30
0.0
 11
11.68958
 21
16.992881
 31
0.0
  0
ENDBLK
  8
0
  0
BLOCK
  8
0
  2
*X1
 70
    65
 10
0.0
 20
0.0
 30
0.0
  3
*X
  0
LINE
  8
0
 62
     0
 10
9.709447
 20
13.952088
 30
0.0
 11
11.68958
 21
15.932221
 31
0.0
  0
LINE
  8
0
 62
     0
 10
8.68958
 20
13.992881
 30
0.0
 11
10.648787
 21
15.952088
 31
0.0
  0
LINE
  8
0
 62
     0
 10
8.68958
 20
15.053541
 30
0.0
 11
9.588127
 21
15.952088
 31
0.0
  0
LINE
  8
0
 62
     0
 10
10.770107
 20
13.952088
 30
0.0
 11
11.68958
 21
14.871561
 31
0.0
  0
ENDBLK
  8
0
  0
BLOCK
  8
0
  2
*X2
 70
    65
 10
0.0
 20
0.0
 30
0.0
  3
*X
  0
LINE
  8
0
 62
     0
 10
9.406146
 20
18.952088
 30
0.0
 11
11.406146
 21
20.952088
 31
0.0
  0
LINE
  8
0
 62
     0
 10
8.68958
 20
19.296182
 30
0.0
 11
10.345486
 21
20.952088
 31
0.0
  0
LINE
  8
0
 62
     0
 10
8.68958
 20
20.356842
 30
0.0
 11
9.284826
 21
20.952088
 31
0.0
  0
LINE
  8
0
 62
     0
 10
10.466806
 20
18.952088
 30
0.0
 11
11.68958
 21
20.174862
 31
0.0
  0
LINE
  8
0
 62
     0
 10
11.527466
 20
18.952088
 30
0.0
 11
11.68958
 21
19.114202
 31
0.0
  0
ENDBLK
  8
0
  0
BLOCK
  8
0
  2
*X3
 70
    65
 10
0.0
 20
0.0
 30
0.0
  3
*X
  0
LINE
  8
0
 62
     0
 10
8.68958
 20
24.599483
 30
0.0
 11
10.042185
 21
25.952088
 31
0.0
  0
LINE
  8
0
 62
     0
 10
10.542185
 20
26.452088
 30
0.0
 11
11.68958
 21
27.599483
 31
0.0
  0
LINE
  8
0
 62
     0
 10
8.68958
 20
25.660143
 30
0.0
 11
8.981525
 21
25.952088
 31
0.0
  0
LINE
  8
0
 62
     0
 10
9.481525
 20
26.452088
 30
0.0
 11
11.481525
 21
28.452088
 31
0.0
  0
LINE
  8
0
 62
     0
 10
8.68958
 20
26.720803
 30
0.0
 11
10.420865
 21
28.452088
 31
0.0
  0
LINE
  8
0
 62
     0
 10
10.920865
 20
28.952088
 30
0.0
 11
11.68958
 21
29.720803
 31
0.0
  0
LINE
  8
0
 62
     0
 10
8.68958
 20
27.781463
 30
0.0
 11
9.360204
 21
28.452088
 31
0.0
  0
LINE
  8
0
 62
     0
 10
9.860204
 20
28.952088
 30
0.0
 11
11.68958
 21
30.781463
 31
0.0
  0
LINE
  8
0
 62
     0
 10
8.799544
 20
28.952088
 30
0.0
 11
10.799544
 21
30.952088
 31
0.0
  0
LINE
  8
0
 62
     0
 10
8.68958
 20
29.902784
 30
0.0
 11
9.738884
 21
30.952088
 31
0.0
  0
LINE
  8
0
 62
     0
 10
9.102845
 20
23.952088
 30
0.0
 11
11.102845
 21
25.952088
 31
0.0
  0
LINE
  8
0
 62
     0
 10
11.602845
 20
26.452088
 30
0.0
 11
11.68958
 21
26.538823
 31
0.0
  0
LINE
  8
0
 62
     0
 10
8.68958
 20
22.478163
 30
0.0
 11
9.663505
 21
23.452088
 31
0.0
  0
LINE
  8
0
 62
     0
 10
10.163505
 20
23.952088
 30
0.0
 11
11.68958
 21
25.478163
 31
0.0
  0
LINE
  8
0
 62
     0
 10
8.724166
 20
21.452088
 30
0.0
 11
10.724166
 21
23.452088
 31
0.0
  0
LINE
  8
0
 62
     0
 10
11.224166
 20
23.952088
 30
0.0
 11
11.68958
 21
24.417502
 31
0.0
  0
LINE
  8
0
 62
     0
 10
9.784826
 20
21.452088
 30
0.0
 11
11.68958
 21
23.356842
 31
0.0
  0
LINE
  8
0
 62
     0
 10
10.845486
 20
21.452088
 30
0.0
 11
11.68958
 21
22.296182
 31
0.0
  0
ENDBLK
  8
0
  0
BLOCK
  8
0
  2
*X4
 70
    65
 10
0.0
 20
0.0
 30
0.0
  3
*X
  0
LINE
  8
0
 62
     0
 10
8.8125
 20
21.125
 30
0.0
 11
8.8125
 21
21.125
 31
0.0
  0
LINE
  8
0
 62
     0
 10
8.9375
 20
21.125
 30
0.0
 11
8.9375
 21
21.125
 31
0.0
  0
LINE
  8
0
 62
     0
 10
9.0625
 20
21.125
 30
0.0
 11
9.0625
 21
21.125
 31
0.0
  0
LINE
  8
0
 62
     0
 10
9.1875
 20
21.125
 30
0.0
 11
9.1875
 21
21.125
 31
0.0
  0
LINE
  8
0
 62
     0
 10
9.3125
 20
21.125
 30
0.0
 11
9.3125
 21
21.125
 31
0.0
  0
LINE
  8
0
 62
     0
 10
9.4375
 20
21.125
 30
0.0
 11
9.4375
 21
21.125
 31
0.0
  0
LINE
  8
0
 62
     0
 10
9.5625
 20
21.125
 30
0.0
 11
9.5625
 21
21.125
 31
0.0
  0
LINE
  8
0
 62
     0
 10
9.6875
 20
21.125
 30
0.0
 11
9.6875
 21
21.125
 31
0.0
  0
LINE
  8
0
 62
     0
 10
9.8125
 20
21.125
 30
0.0
 11
9.8125
 21
21.125
 31
0.0
  0
LINE
  8
0
 62
     0
 10
9.9375
 20
21.125
 30
0.0
 11
9.9375
 21
21.125
 31
0.0
  0
LINE
  8
0
 62
     0
 10
10.0625
 20
21.125
 30
0.0
 11
10.0625
 21
21.125
 31
0.0
  0
LINE
  8
0
 62
     0
 10
10.1875
 20
21.125
 30
0.0
 11
10.1875
 21
21.125
 31
0.0
  0
LINE
  8
0
 62
     0
 10
10.3125
 20
21.125
 30
0.0
 11
10.3125
 21
21.125
 31
0.0
  0
LINE
  8
0
 62
     0
 10
10.4375
 20
21.125
 30
0.0
 11
10.4375
 21
21.125
 31
0.0
  0
LINE
  8
0
 62
     0
 10
10.5625
 20
21.125
 30
0.0
 11
10.5625
 21
21.125
 31
0.0
  0
LINE
  8
0
 62
     0
 10
10.6875
 20
21.125
 30
0.0
 11
10.6875
 21
21.125
 31
0.0
  0
LINE
  8
0
 62
     0
 10
10.8125
 20
21.125
 30
0.0
 11
10.8125
 21
21.125
 31
0.0
  0
LINE
  8
0
 62
     0
 10
10.9375
 20
21.125
 30
0.0
 11
10.9375
 21
21.125
 31
0.0
  0
LINE
  8
0
 62
     0
 10
11.0625
 20
21.125
 30
0.0
 11
11.0625
 21
21.125
 31
0.0
  0
LINE
  8
0
 62
     0
 10
11.1875
 20
21.125
 30
0.0
 11
11.1875
 21
21.125
 31
0.0
  0
LINE
  8
0
 62
     0
 10
11.3125
 20
21.125
 30
0.0
 11
11.3125
 21
21.125
 31
0.0
  0
LINE
  8
0
 62
     0
 10
11.4375
 20
21.125
 30
0.0
 11
11.4375
 21
21.125
 31
0.0
  0
LINE
  8
0
 62
     0
 10
11.5625
 20
21.125
 30
0.0
 11
11.5625
 21
21.125
 31
0.0
  0
LINE
  8
0
 62
     0
 10
8.875
 20
21.25
 30
0.0
 11
8.875
 21
21.25
 31
0.0
  0
LINE
  8
0
 62
     0
 10
9.0
 20
21.25
 30
0.0
 11
9.0
 21
21.25
 31
0.0
  0
LINE
  8
0
 62
     0
 10
9.125
 20
21.25
 30
0.0
 11
9.125
 21
21.25
 31
0.0
  0
LINE
  8
0
 62
     0
 10
9.25
 20
21.25
 30
0.0
 11
9.25
 21
21.25
 31
0.0
  0
LINE
  8
0
 62
     0
 10
9.375
 20
21.25
 30
0.0
 11
9.375
 21
21.25
 31
0.0
  0
LINE
  8
0
 62
     0
 10
9.5
 20
21.25
 30
0.0
 11
9.5
 21
21.25
 31
0.0
  0
LINE
  8
0
 62
     0
 10
9.625
 20
21.25
 30
0.0
 11
9.625
 21
21.25
 31
0.0
  0
LINE
  8
0
 62
     0
 10
9.75
 20
21.25
 30
0.0
 11
9.75
 21
21.25
 31
0.0
  0
LINE
  8
0
 62
     0
 10
9.875
 20
21.25
 30
0.0
 11
9.875
 21
21.25
 31
0.0
  0
LINE
  8
0
 62
     0
 10
10.0
 20
21.25
 30
0.0
 11
10.0
 21
21.25
 31
0.0
  0
LINE
  8
0
 62
     0
 10
10.125
 20
21.25
 30
0.0
 11
10.125
 21
21.25
 31
0.0
  0
LINE
  8
0
 62
     0
 10
10.25
 20
21.25
 30
0.0
 11
10.25
 21
21.25
 31
0.0
  0
LINE
  8
0
 62
     0
 10
10.375
 20
21.25
 30
0.0
 11
10.375
 21
21.25
 31
0.0
  0
LINE
  8
0
 62
     0
 10
10.5
 20
21.25
 30
0.0
 11
10.5
 21
21.25
 31
0.0
  0
LINE
  8
0
 62
     0
 10
10.625
 20
21.25
 30
0.0
 11
10.625
 21
21.25
 31
0.0
  0
LINE
  8
0
 62
     0
 10
10.75
 20
21.25
 30
0.0
 11
10.75
 21
21.25
 31
0.0
  0
LINE
  8
0
 62
     0
 10
10.875
 20
21.25
 30
0.0
 11
10.875
 21
21.25
 31
0.0
  0
LINE
  8
0
 62
     0
 10
11.0
 20
21.25
 30
0.0
 11
11.0
 21
21.25
 31
0.0
  0
LINE
  8
0
 62
     0
 10
11.125
 20
21.25
 30
0.0
 11
11.125
 21
21.25
 31
0.0
  0
LINE
  8
0
 62
     0
 10
11.25
 20
21.25
 30
0.0
 11
11.25
 21
21.25
 31
0.0
  0
LINE
  8
0
 62
     0
 10
11.375
 20
21.25
 30
0.0
 11
11.375
 21
21.25
 31
0.0
  0
LINE
  8
0
 62
     0
 10
11.5
 20
21.25
 30
0.0
 11
11.5
 21
21.25
 31
0.0
  0
LINE
  8
0
 62
     0
 10
8.8125
 20
21.375
 30
0.0
 11
8.8125
 21
21.375
 31
0.0
  0
LINE
  8
0
 62
     0
 10
8.9375
 20
21.375
 30
0.0
 11
8.9375
 21
21.375
 31
0.0
  0
LINE
  8
0
 62
     0
 10
9.0625
 20
21.375
 30
0.0
 11
9.0625
 21
21.375
 31
0.0
  0
LINE
  8
0
 62
     0
 10
9.1875
 20
21.375
 30
0.0
 11
9.1875
 21
21.375
 31
0.0
  0
LINE
  8
0
 62
     0
 10
9.3125
 20
21.375
 30
0.0
 11
9.3125
 21
21.375
 31
0.0
  0
LINE
  8
0
 62
     0
 10
9.4375
 20
21.375
 30
0.0
 11
9.4375
 21
21.375
 31
0.0
  0
LINE
  8
0
 62
     0
 10
9.5625
 20
21.375
 30
0.0
 11
9.5625
 21
21.375
 31
0.0
  0
LINE
  8
0
 62
     0
 10
9.6875
 20
21.375
 30
0.0
 11
9.6875
 21
21.375
 31
0.0
  0
LINE
  8
0
 62
     0
 10
9.8125
 20
21.375
 30
0.0
 11
9.8125
 21
21.375
 31
0.0
  0
LINE
  8
0
 62
     0
 10
9.9375
 20
21.375
 30
0.0
 11
9.9375
 21
21.375
 31
0.0
  0
LINE
  8
0
 62
     0
 10
10.0625
 20
21.375
 30
0.0
 11
10.0625
 21
21.375
 31
0.0
  0
LINE
  8
0
 62
     0
 10
10.1875
 20
21.375
 30
0.0
 11
10.1875
 21
21.375
 31
0.0
  0
LINE
  8
0
 62
     0
 10
10.3125
 20
21.375
 30
0.0
 11
10.3125
 21
21.375
 31
0.0
  0
LINE
  8
0
 62
     0
 10
10.4375
 20
21.375
 30
0.0
 11
10.4375
 21
21.375
 31
0.0
  0
LINE
  8
0
 62
     0
 10
10.5625
 20
21.375
 30
0.0
 11
10.5625
 21
21.375
 31
0.0
  0
LINE
  8
0
 62
     0
 10
10.6875
 20
21.375
 30
0.0
 11
10.6875
 21
21.375
 31
0.0
  0
LINE
  8
0
 62
     0
 10
10.8125
 20
21.375
 30
0.0
 11
10.8125
 21
21.375
 31
0.0
  0
LINE
  8
0
 62
     0
 10
10.9375
 20
21.375
 30
0.0
 11
10.9375
 21
21.375
 31
0.0
  0
LINE
  8
0
 62
     0
 10
11.0625
 20
21.375
 30
0.0
 11
11.0625
 21
21.375
 31
0.0
  0
LINE
  8
0
 62
     0
 10
11.1875
 20
21.375
 30
0.0
 11
11.1875
 21
21.375
 31
0.0
  0
LINE
  8
0
 62
     0
 10
11.3125
 20
21.375
 30
0.0
 11
11.3125
 21
21.375
 31
0.0
  0
LINE
  8
0
 62
     0
 10
11.4375
 20
21.375
 30
0.0
 11
11.4375
 21
21.375
 31
0.0
  0
LINE
  8
0
 62
     0
 10
11.5625
 20
21.375
 30
0.0
 11
11.5625
 21
21.375
 31
0.0
  0
LINE
  8
0
 62
     0
 10
8.75
 20
21.0
 30
0.0
 11
8.75
 21
21.0
 31
0.0
  0
LINE
  8
0
 62
     0
 10
8.875
 20
21.0
 30
0.0
 11
8.875
 21
21.0
 31
0.0
  0
LINE
  8
0
 62
     0
 10
9.0
 20
21.0
 30
0.0
 11
9.0
 21
21.0
 31
0.0
  0
LINE
  8
0
 62
     0
 10
9.125
 20
21.0
 30
0.0
 11
9.125
 21
21.0
 31
0.0
  0
LINE
  8
0
 62
     0
 10
9.25
 20
21.0
 30
0.0
 11
9.25
 21
21.0
 31
0.0
  0
LINE
  8
0
 62
     0
 10
9.375
 20
21.0
 30
0.0
 11
9.375
 21
21.0
 31
0.0
  0
LINE
  8
0
 62
     0
 10
9.5
 20
21.0
 30
0.0
 11
9.5
 21
21.0
 31
0.0
  0
LINE
  8
0
 62
     0
 10
9.625
 20
21.0
 30
0.0
 11
9.625
 21
21.0
 31
0.0
  0
LINE
  8
0
 62
     0
 10
9.75
 20
21.0
 30
0.0
 11
9.75
 21
21.0
 31
0.0
  0
LINE
  8
0
 62
     0
 10
9.875
 20
21.0
 30
0.0
 11
9.875
 21
21.0
 31
0.0
  0
LINE
  8
0
 62
     0
 10
10.0
 20
21.0
 30
0.0
 11
10.0
 21
21.0
 31
0.0
  0
LINE
  8
0
 62
     0
 10
10.125
 20
21.0
 30
0.0
 11
10.125
 21
21.0
 31
0.0
  0
LINE
  8
0
 62
     0
 10
10.25
 20
21.0
 30
0.0
 11
10.25
 21
21.0
 31
0.0
  0
LINE
  8
0
 62
     0
 10
10.375
 20
21.0
 30
0.0
 11
10.375
 21
21.0
 31
0.0
  0
LINE
  8
0
 62
     0
 10
10.5
 20
21.0
 30
0.0
 11
10.5
 21
21.0
 31
0.0
  0
LINE
  8
0
 62
     0
 10
10.625
 20
21.0
 30
0.0
 11
10.625
 21
21.0
 31
0.0
  0
LINE
  8
0
 62
     0
 10
10.75
 20
21.0
 30
0.0
 11
10.75
 21
21.0
 31
0.0
  0
LINE
  8
0
 62
     0
 10
10.875
 20
21.0
 30
0.0
 11
10.875
 21
21.0
 31
0.0
  0
LINE
  8
0
 62
     0
 10
11.0
 20
21.0
 30
0.0
 11
11.0
 21
21.0
 31
0.0
  0
LINE
  8
0
 62
     0
 10
11.125
 20
21.0
 30
0.0
 11
11.125
 21
21.0
 31
0.0
  0
LINE
  8
0
 62
     0
 10
11.25
 20
21.0
 30
0.0
 11
11.25
 21
21.0
 31
0.0
  0
LINE
  8
0
 62
     0
 10
11.375
 20
21.0
 30
0.0
 11
11.375
 21
21.0
 31
0.0
  0
LINE
  8
0
 62
     0
 10
11.5
 20
21.0
 30
0.0
 11
11.5
 21
21.0
 31
0.0
  0
LINE
  8
0
 62
     0
 10
11.625
 20
21.0
 30
0.0
 11
11.625
 21
21.0
 31
0.0
  0
ENDBLK
  8
0
  0
BLOCK
  8
0
  2
*X5
 70
    65
 10
0.0
 20
0.0
 30
0.0
  3
*X
  0
LINE
  8
0
 62
     0
 10
8.8125
 20
23.625
 30
0.0
 11
8.8125
 21
23.625
 31
0.0
  0
LINE
  8
0
 62
     0
 10
8.9375
 20
23.625
 30
0.0
 11
8.9375
 21
23.625
 31
0.0
  0
LINE
  8
0
 62
     0
 10
9.0625
 20
23.625
 30
0.0
 11
9.0625
 21
23.625
 31
0.0
  0
LINE
  8
0
 62
     0
 10
9.1875
 20
23.625
 30
0.0
 11
9.1875
 21
23.625
 31
0.0
  0
LINE
  8
0
 62
     0
 10
9.3125
 20
23.625
 30
0.0
 11
9.3125
 21
23.625
 31
0.0
  0
LINE
  8
0
 62
     0
 10
9.4375
 20
23.625
 30
0.0
 11
9.4375
 21
23.625
 31
0.0
  0
LINE
  8
0
 62
     0
 10
9.5625
 20
23.625
 30
0.0
 11
9.5625
 21
23.625
 31
0.0
  0
LINE
  8
0
 62
     0
 10
9.6875
 20
23.625
 30
0.0
 11
9.6875
 21
23.625
 31
0.0
  0
LINE
  8
0
 62
     0
 10
9.8125
 20
23.625
 30
0.0
 11
9.8125
 21
23.625
 31
0.0
  0
LINE
  8
0
 62
     0
 10
9.9375
 20
23.625
 30
0.0
 11
9.9375
 21
23.625
 31
0.0
  0
LINE
  8
0
 62
     0
 10
10.0625
 20
23.625
 30
0.0
 11
10.0625
 21
23.625
 31
0.0
  0
LINE
  8
0
 62
     0
 10
10.1875
 20
23.625
 30
0.0
 11
10.1875
 21
23.625
 31
0.0
  0
LINE
  8
0
 62
     0
 10
10.3125
 20
23.625
 30
0.0
 11
10.3125
 21
23.625
 31
0.0
  0
LINE
  8
0
 62
     0
 10
10.4375
 20
23.625
 30
0.0
 11
10.4375
 21
23.625
 31
0.0
  0
LINE
  8
0
 62
     0
 10
10.5625
 20
23.625
 30
0.0
 11
10.5625
 21
23.625
 31
0.0
  0
LINE
  8
0
 62
     0
 10
10.6875
 20
23.625
 30
0.0
 11
10.6875
 21
23.625
 31
0.0
  0
LINE
  8
0
 62
     0
 10
10.8125
 20
23.625
 30
0.0
 11
10.8125
 21
23.625
 31
0.0
  0
LINE
  8
0
 62
     0
 10
10.9375
 20
23.625
 30
0.0
 11
10.9375
 21
23.625
 31
0.0
  0
LINE
  8
0
 62
     0
 10
11.0625
 20
23.625
 30
0.0
 11
11.0625
 21
23.625
 31
0.0
  0
LINE
  8
0
 62
     0
 10
11.1875
 20
23.625
 30
0.0
 11
11.1875
 21
23.625
 31
0.0
  0
LINE
  8
0
 62
     0
 10
11.3125
 20
23.625
 30
0.0
 11
11.3125
 21
23.625
 31
0.0
  0
LINE
  8
0
 62
     0
 10
11.4375
 20
23.625
 30
0.0
 11
11.4375
 21
23.625
 31
0.0
  0
LINE
  8
0
 62
     0
 10
11.5625
 20
23.625
 30
0.0
 11
11.5625
 21
23.625
 31
0.0
  0
LINE
  8
0
 62
     0
 10
8.875
 20
23.75
 30
0.0
 11
8.875
 21
23.75
 31
0.0
  0
LINE
  8
0
 62
     0
 10
9.0
 20
23.75
 30
0.0
 11
9.0
 21
23.75
 31
0.0
  0
LINE
  8
0
 62
     0
 10
9.125
 20
23.75
 30
0.0
 11
9.125
 21
23.75
 31
0.0
  0
LINE
  8
0
 62
     0
 10
9.25
 20
23.75
 30
0.0
 11
9.25
 21
23.75
 31
0.0
  0
LINE
  8
0
 62
     0
 10
9.375
 20
23.75
 30
0.0
 11
9.375
 21
23.75
 31
0.0
  0
LINE
  8
0
 62
     0
 10
9.5
 20
23.75
 30
0.0
 11
9.5
 21
23.75
 31
0.0
  0
LINE
  8
0
 62
     0
 10
9.625
 20
23.75
 30
0.0
 11
9.625
 21
23.75
 31
0.0
  0
LINE
  8
0
 62
     0
 10
9.75
 20
23.75
 30
0.0
 11
9.75
 21
23.75
 31
0.0
  0
LINE
  8
0
 62
     0
 10
9.875
 20
23.75
 30
0.0
 11
9.875
 21
23.75
 31
0.0
  0
LINE
  8
0
 62
     0
 10
10.0
 20
23.75
 30
0.0
 11
10.0
 21
23.75
 31
0.0
  0
LINE
  8
0
 62
     0
 10
10.125
 20
23.75
 30
0.0
 11
10.125
 21
23.75
 31
0.0
  0
LINE
  8
0
 62
     0
 10
10.25
 20
23.75
 30
0.0
 11
10.25
 21
23.75
 31
0.0
  0
LINE
  8
0
 62
     0
 10
10.375
 20
23.75
 30
0.0
 11
10.375
 21
23.75
 31
0.0
  0
LINE
  8
0
 62
     0
 10
10.5
 20
23.75
 30
0.0
 11
10.5
 21
23.75
 31
0.0
  0
LINE
  8
0
 62
     0
 10
10.625
 20
23.75
 30
0.0
 11
10.625
 21
23.75
 31
0.0
  0
LINE
  8
0
 62
     0
 10
10.75
 20
23.75
 30
0.0
 11
10.75
 21
23.75
 31
0.0
  0
LINE
  8
0
 62
     0
 10
10.875
 20
23.75
 30
0.0
 11
10.875
 21
23.75
 31
0.0
  0
LINE
  8
0
 62
     0
 10
11.0
 20
23.75
 30
0.0
 11
11.0
 21
23.75
 31
0.0
  0
LINE
  8
0
 62
     0
 10
11.125
 20
23.75
 30
0.0
 11
11.125
 21
23.75
 31
0.0
  0
LINE
  8
0
 62
     0
 10
11.25
 20
23.75
 30
0.0
 11
11.25
 21
23.75
 31
0.0
  0
LINE
  8
0
 62
     0
 10
11.375
 20
23.75
 30
0.0
 11
11.375
 21
23.75
 31
0.0
  0
LINE
  8
0
 62
     0
 10
11.5
 20
23.75
 30
0.0
 11
11.5
 21
23.75
 31
0.0
  0
LINE
  8
0
 62
     0
 10
8.8125
 20
23.875
 30
0.0
 11
8.8125
 21
23.875
 31
0.0
  0
LINE
  8
0
 62
     0
 10
8.9375
 20
23.875
 30
0.0
 11
8.9375
 21
23.875
 31
0.0
  0
LINE
  8
0
 62
     0
 10
9.0625
 20
23.875
 30
0.0
 11
9.0625
 21
23.875
 31
0.0
  0
LINE
  8
0
 62
     0
 10
9.1875
 20
23.875
 30
0.0
 11
9.1875
 21
23.875
 31
0.0
  0
LINE
  8
0
 62
     0
 10
9.3125
 20
23.875
 30
0.0
 11
9.3125
 21
23.875
 31
0.0
  0
LINE
  8
0
 62
     0
 10
9.4375
 20
23.875
 30
0.0
 11
9.4375
 21
23.875
 31
0.0
  0
LINE
  8
0
 62
     0
 10
9.5625
 20
23.875
 30
0.0
 11
9.5625
 21
23.875
 31
0.0
  0
LINE
  8
0
 62
     0
 10
9.6875
 20
23.875
 30
0.0
 11
9.6875
 21
23.875
 31
0.0
  0
LINE
  8
0
 62
     0
 10
9.8125
 20
23.875
 30
0.0
 11
9.8125
 21
23.875
 31
0.0
  0
LINE
  8
0
 62
     0
 10
9.9375
 20
23.875
 30
0.0
 11
9.9375
 21
23.875
 31
0.0
  0
LINE
  8
0
 62
     0
 10
10.0625
 20
23.875
 30
0.0
 11
10.0625
 21
23.875
 31
0.0
  0
LINE
  8
0
 62
     0
 10
10.1875
 20
23.875
 30
0.0
 11
10.1875
 21
23.875
 31
0.0
  0
LINE
  8
0
 62
     0
 10
10.3125
 20
23.875
 30
0.0
 11
10.3125
 21
23.875
 31
0.0
  0
LINE
  8
0
 62
     0
 10
10.4375
 20
23.875
 30
0.0
 11
10.4375
 21
23.875
 31
0.0
  0
LINE
  8
0
 62
     0
 10
10.5625
 20
23.875
 30
0.0
 11
10.5625
 21
23.875
 31
0.0
  0
LINE
  8
0
 62
     0
 10
10.6875
 20
23.875
 30
0.0
 11
10.6875
 21
23.875
 31
0.0
  0
LINE
  8
0
 62
     0
 10
10.8125
 20
23.875
 30
0.0
 11
10.8125
 21
23.875
 31
0.0
  0
LINE
  8
0
 62
     0
 10
10.9375
 20
23.875
 30
0.0
 11
10.9375
 21
23.875
 31
0.0
  0
LINE
  8
0
 62
     0
 10
11.0625
 20
23.875
 30
0.0
 11
11.0625
 21
23.875
 31
0.0
  0
LINE
  8
0
 62
     0
 10
11.1875
 20
23.875
 30
0.0
 11
11.1875
 21
23.875
 31
0.0
  0
LINE
  8
0
 62
     0
 10
11.3125
 20
23.875
 30
0.0
 11
11.3125
 21
23.875
 31
0.0
  0
LINE
  8
0
 62
     0
 10
11.4375
 20
23.875
 30
0.0
 11
11.4375
 21
23.875
 31
0.0
  0
LINE
  8
0
 62
     0
 10
11.5625
 20
23.875
 30
0.0
 11
11.5625
 21
23.875
 31
0.0
  0
LINE
  8
0
 62
     0
 10
8.75
 20
23.5
 30
0.0
 11
8.75
 21
23.5
 31
0.0
  0
LINE
  8
0
 62
     0
 10
8.875
 20
23.5
 30
0.0
 11
8.875
 21
23.5
 31
0.0
  0
LINE
  8
0
 62
     0
 10
9.0
 20
23.5
 30
0.0
 11
9.0
 21
23.5
 31
0.0
  0
LINE
  8
0
 62
     0
 10
9.125
 20
23.5
 30
0.0
 11
9.125
 21
23.5
 31
0.0
  0
LINE
  8
0
 62
     0
 10
9.25
 20
23.5
 30
0.0
 11
9.25
 21
23.5
 31
0.0
  0
LINE
  8
0
 62
     0
 10
9.375
 20
23.5
 30
0.0
 11
9.375
 21
23.5
 31
0.0
  0
LINE
  8
0
 62
     0
 10
9.5
 20
23.5
 30
0.0
 11
9.5
 21
23.5
 31
0.0
  0
LINE
  8
0
 62
     0
 10
9.625
 20
23.5
 30
0.0
 11
9.625
 21
23.5
 31
0.0
  0
LINE
  8
0
 62
     0
 10
9.75
 20
23.5
 30
0.0
 11
9.75
 21
23.5
 31
0.0
  0
LINE
  8
0
 62
     0
 10
9.875
 20
23.5
 30
0.0
 11
9.875
 21
23.5
 31
0.0
  0
LINE
  8
0
 62
     0
 10
10.0
 20
23.5
 30
0.0
 11
10.0
 21
23.5
 31
0.0
  0
LINE
  8
0
 62
     0
 10
10.125
 20
23.5
 30
0.0
 11
10.125
 21
23.5
 31
0.0
  0
LINE
  8
0
 62
     0
 10
10.25
 20
23.5
 30
0.0
 11
10.25
 21
23.5
 31
0.0
  0
LINE
  8
0
 62
     0
 10
10.375
 20
23.5
 30
0.0
 11
10.375
 21
23.5
 31
0.0
  0
LINE
  8
0
 62
     0
 10
10.5
 20
23.5
 30
0.0
 11
10.5
 21
23.5
 31
0.0
  0
LINE
  8
0
 62
     0
 10
10.625
 20
23.5
 30
0.0
 11
10.625
 21
23.5
 31
0.0
  0
LINE
  8
0
 62
     0
 10
10.75
 20
23.5
 30
0.0
 11
10.75
 21
23.5
 31
0.0
  0
LINE
  8
0
 62
     0
 10
10.875
 20
23.5
 30
0.0
 11
10.875
 21
23.5
 31
0.0
  0
LINE
  8
0
 62
     0
 10
11.0
 20
23.5
 30
0.0
 11
11.0
 21
23.5
 31
0.0
  0
LINE
  8
0
 62
     0
 10
11.125
 20
23.5
 30
0.0
 11
11.125
 21
23.5
 31
0.0
  0
LINE
  8
0
 62
     0
 10
11.25
 20
23.5
 30
0.0
 11
11.25
 21
23.5
 31
0.0
  0
LINE
  8
0
 62
     0
 10
11.375
 20
23.5
 30
0.0
 11
11.375
 21
23.5
 31
0.0
  0
LINE
  8
0
 62
     0
 10
11.5
 20
23.5
 30
0.0
 11
11.5
 21
23.5
 31
0.0
  0
LINE
  8
0
 62
     0
 10
11.625
 20
23.5
 30
0.0
 11
11.625
 21
23.5
 31
0.0
  0
ENDBLK
  8
0
  0
BLOCK
  8
0
  2
*X6
 70
    65
 10
0.0
 20
0.0
 30
0.0
  3
*X
  0
LINE
  8
0
 62
     0
 10
8.8125
 20
26.125
 30
0.0
 11
8.8125
 21
26.125
 31
0.0
  0
LINE
  8
0
 62
     0
 10
8.9375
 20
26.125
 30
0.0
 11
8.9375
 21
26.125
 31
0.0
  0
LINE
  8
0
 62
     0
 10
9.0625
 20
26.125
 30
0.0
 11
9.0625
 21
26.125
 31
0.0
  0
LINE
  8
0
 62
     0
 10
9.1875
 20
26.125
 30
0.0
 11
9.1875
 21
26.125
 31
0.0
  0
LINE
  8
0
 62
     0
 10
9.3125
 20
26.125
 30
0.0
 11
9.3125
 21
26.125
 31
0.0
  0
LINE
  8
0
 62
     0
 10
9.4375
 20
26.125
 30
0.0
 11
9.4375
 21
26.125
 31
0.0
  0
LINE
  8
0
 62
     0
 10
9.5625
 20
26.125
 30
0.0
 11
9.5625
 21
26.125
 31
0.0
  0
LINE
  8
0
 62
     0
 10
9.6875
 20
26.125
 30
0.0
 11
9.6875
 21
26.125
 31
0.0
  0
LINE
  8
0
 62
     0
 10
9.8125
 20
26.125
 30
0.0
 11
9.8125
 21
26.125
 31
0.0
  0
LINE
  8
0
 62
     0
 10
9.9375
 20
26.125
 30
0.0
 11
9.9375
 21
26.125
 31
0.0
  0
LINE
  8
0
 62
     0
 10
10.0625
 20
26.125
 30
0.0
 11
10.0625
 21
26.125
 31
0.0
  0
LINE
  8
0
 62
     0
 10
10.1875
 20
26.125
 30
0.0
 11
10.1875
 21
26.125
 31
0.0
  0
LINE
  8
0
 62
     0
 10
10.3125
 20
26.125
 30
0.0
 11
10.3125
 21
26.125
 31
0.0
  0
LINE
  8
0
 62
     0
 10
10.4375
 20
26.125
 30
0.0
 11
10.4375
 21
26.125
 31
0.0
  0
LINE
  8
0
 62
     0
 10
10.5625
 20
26.125
 30
0.0
 11
10.5625
 21
26.125
 31
0.0
  0
LINE
  8
0
 62
     0
 10
10.6875
 20
26.125
 30
0.0
 11
10.6875
 21
26.125
 31
0.0
  0
LINE
  8
0
 62
     0
 10
10.8125
 20
26.125
 30
0.0
 11
10.8125
 21
26.125
 31
0.0
  0
LINE
  8
0
 62
     0
 10
10.9375
 20
26.125
 30
0.0
 11
10.9375
 21
26.125
 31
0.0
  0
LINE
  8
0
 62
     0
 10
11.0625
 20
26.125
 30
0.0
 11
11.0625
 21
26.125
 31
0.0
  0
LINE
  8
0
 62
     0
 10
11.1875
 20
26.125
 30
0.0
 11
11.1875
 21
26.125
 31
0.0
  0
LINE
  8
0
 62
     0
 10
11.3125
 20
26.125
 30
0.0
 11
11.3125
 21
26.125
 31
0.0
  0
LINE
  8
0
 62
     0
 10
11.4375
 20
26.125
 30
0.0
 11
11.4375
 21
26.125
 31
0.0
  0
LINE
  8
0
 62
     0
 10
11.5625
 20
26.125
 30
0.0
 11
11.5625
 21
26.125
 31
0.0
  0
LINE
  8
0
 62
     0
 10
8.875
 20
26.25
 30
0.0
 11
8.875
 21
26.25
 31
0.0
  0
LINE
  8
0
 62
     0
 10
9.0
 20
26.25
 30
0.0
 11
9.0
 21
26.25
 31
0.0
  0
LINE
  8
0
 62
     0
 10
9.125
 20
26.25
 30
0.0
 11
9.125
 21
26.25
 31
0.0
  0
LINE
  8
0
 62
     0
 10
9.25
 20
26.25
 30
0.0
 11
9.25
 21
26.25
 31
0.0
  0
LINE
  8
0
 62
     0
 10
9.375
 20
26.25
 30
0.0
 11
9.375
 21
26.25
 31
0.0
  0
LINE
  8
0
 62
     0
 10
9.5
 20
26.25
 30
0.0
 11
9.5
 21
26.25
 31
0.0
  0
LINE
  8
0
 62
     0
 10
9.625
 20
26.25
 30
0.0
 11
9.625
 21
26.25
 31
0.0
  0
LINE
  8
0
 62
     0
 10
9.75
 20
26.25
 30
0.0
 11
9.75
 21
26.25
 31
0.0
  0
LINE
  8
0
 62
     0
 10
9.875
 20
26.25
 30
0.0
 11
9.875
 21
26.25
 31
0.0
  0
LINE
  8
0
 62
     0
 10
10.0
 20
26.25
 30
0.0
 11
10.0
 21
26.25
 31
0.0
  0
LINE
  8
0
 62
     0
 10
10.125
 20
26.25
 30
0.0
 11
10.125
 21
26.25
 31
0.0
  0
LINE
  8
0
 62
     0
 10
10.25
 20
26.25
 30
0.0
 11
10.25
 21
26.25
 31
0.0
  0
LINE
  8
0
 62
     0
 10
10.375
 20
26.25
 30
0.0
 11
10.375
 21
26.25
 31
0.0
  0
LINE
  8
0
 62
     0
 10
10.5
 20
26.25
 30
0.0
 11
10.5
 21
26.25
 31
0.0
  0
LINE
  8
0
 62
     0
 10
10.625
 20
26.25
 30
0.0
 11
10.625
 21
26.25
 31
0.0
  0
LINE
  8
0
 62
     0
 10
10.75
 20
26.25
 30
0.0
 11
10.75
 21
26.25
 31
0.0
  0
LINE
  8
0
 62
     0
 10
10.875
 20
26.25
 30
0.0
 11
10.875
 21
26.25
 31
0.0
  0
LINE
  8
0
 62
     0
 10
11.0
 20
26.25
 30
0.0
 11
11.0
 21
26.25
 31
0.0
  0
LINE
  8
0
 62
     0
 10
11.125
 20
26.25
 30
0.0
 11
11.125
 21
26.25
 31
0.0
  0
LINE
  8
0
 62
     0
 10
11.25
 20
26.25
 30
0.0
 11
11.25
 21
26.25
 31
0.0
  0
LINE
  8
0
 62
     0
 10
11.375
 20
26.25
 30
0.0
 11
11.375
 21
26.25
 31
0.0
  0
LINE
  8
0
 62
     0
 10
11.5
 20
26.25
 30
0.0
 11
11.5
 21
26.25
 31
0.0
  0
LINE
  8
0
 62
     0
 10
8.8125
 20
26.375
 30
0.0
 11
8.8125
 21
26.375
 31
0.0
  0
LINE
  8
0
 62
     0
 10
8.9375
 20
26.375
 30
0.0
 11
8.9375
 21
26.375
 31
0.0
  0
LINE
  8
0
 62
     0
 10
9.0625
 20
26.375
 30
0.0
 11
9.0625
 21
26.375
 31
0.0
  0
LINE
  8
0
 62
     0
 10
9.1875
 20
26.375
 30
0.0
 11
9.1875
 21
26.375
 31
0.0
  0
LINE
  8
0
 62
     0
 10
9.3125
 20
26.375
 30
0.0
 11
9.3125
 21
26.375
 31
0.0
  0
LINE
  8
0
 62
     0
 10
9.4375
 20
26.375
 30
0.0
 11
9.4375
 21
26.375
 31
0.0
  0
LINE
  8
0
 62
     0
 10
9.5625
 20
26.375
 30
0.0
 11
9.5625
 21
26.375
 31
0.0
  0
LINE
  8
0
 62
     0
 10
9.6875
 20
26.375
 30
0.0
 11
9.6875
 21
26.375
 31
0.0
  0
LINE
  8
0
 62
     0
 10
9.8125
 20
26.375
 30
0.0
 11
9.8125
 21
26.375
 31
0.0
  0
LINE
  8
0
 62
     0
 10
9.9375
 20
26.375
 30
0.0
 11
9.9375
 21
26.375
 31
0.0
  0
LINE
  8
0
 62
     0
 10
10.0625
 20
26.375
 30
0.0
 11
10.0625
 21
26.375
 31
0.0
  0
LINE
  8
0
 62
     0
 10
10.1875
 20
26.375
 30
0.0
 11
10.1875
 21
26.375
 31
0.0
  0
LINE
  8
0
 62
     0
 10
10.3125
 20
26.375
 30
0.0
 11
10.3125
 21
26.375
 31
0.0
  0
LINE
  8
0
 62
     0
 10
10.4375
 20
26.375
 30
0.0
 11
10.4375
 21
26.375
 31
0.0
  0
LINE
  8
0
 62
     0
 10
10.5625
 20
26.375
 30
0.0
 11
10.5625
 21
26.375
 31
0.0
  0
LINE
  8
0
 62
     0
 10
10.6875
 20
26.375
 30
0.0
 11
10.6875
 21
26.375
 31
0.0
  0
LINE
  8
0
 62
     0
 10
10.8125
 20
26.375
 30
0.0
 11
10.8125
 21
26.375
 31
0.0
  0
LINE
  8
0
 62
     0
 10
10.9375
 20
26.375
 30
0.0
 11
10.9375
 21
26.375
 31
0.0
  0
LINE
  8
0
 62
     0
 10
11.0625
 20
26.375
 30
0.0
 11
11.0625
 21
26.375
 31
0.0
  0
LINE
  8
0
 62
     0
 10
11.1875
 20
26.375
 30
0.0
 11
11.1875
 21
26.375
 31
0.0
  0
LINE
  8
0
 62
     0
 10
11.3125
 20
26.375
 30
0.0
 11
11.3125
 21
26.375
 31
0.0
  0
LINE
  8
0
 62
     0
 10
11.4375
 20
26.375
 30
0.0
 11
11.4375
 21
26.375
 31
0.0
  0
LINE
  8
0
 62
     0
 10
11.5625
 20
26.375
 30
0.0
 11
11.5625
 21
26.375
 31
0.0
  0
LINE
  8
0
 62
     0
 10
8.75
 20
26.0
 30
0.0
 11
8.75
 21
26.0
 31
0.0
  0
LINE
  8
0
 62
     0
 10
8.875
 20
26.0
 30
0.0
 11
8.875
 21
26.0
 31
0.0
  0
LINE
  8
0
 62
     0
 10
9.0
 20
26.0
 30
0.0
 11
9.0
 21
26.0
 31
0.0
  0
LINE
  8
0
 62
     0
 10
9.125
 20
26.0
 30
0.0
 11
9.125
 21
26.0
 31
0.0
  0
LINE
  8
0
 62
     0
 10
9.25
 20
26.0
 30
0.0
 11
9.25
 21
26.0
 31
0.0
  0
LINE
  8
0
 62
     0
 10
9.375
 20
26.0
 30
0.0
 11
9.375
 21
26.0
 31
0.0
  0
LINE
  8
0
 62
     0
 10
9.5
 20
26.0
 30
0.0
 11
9.5
 21
26.0
 31
0.0
  0
LINE
  8
0
 62
     0
 10
9.625
 20
26.0
 30
0.0
 11
9.625
 21
26.0
 31
0.0
  0
LINE
  8
0
 62
     0
 10
9.75
 20
26.0
 30
0.0
 11
9.75
 21
26.0
 31
0.0
  0
LINE
  8
0
 62
     0
 10
9.875
 20
26.0
 30
0.0
 11
9.875
 21
26.0
 31
0.0
  0
LINE
  8
0
 62
     0
 10
10.0
 20
26.0
 30
0.0
 11
10.0
 21
26.0
 31
0.0
  0
LINE
  8
0
 62
     0
 10
10.125
 20
26.0
 30
0.0
 11
10.125
 21
26.0
 31
0.0
  0
LINE
  8
0
 62
     0
 10
10.25
 20
26.0
 30
0.0
 11
10.25
 21
26.0
 31
0.0
  0
LINE
  8
0
 62
     0
 10
10.375
 20
26.0
 30
0.0
 11
10.375
 21
26.0
 31
0.0
  0
LINE
  8
0
 62
     0
 10
10.5
 20
26.0
 30
0.0
 11
10.5
 21
26.0
 31
0.0
  0
LINE
  8
0
 62
     0
 10
10.625
 20
26.0
 30
0.0
 11
10.625
 21
26.0
 31
0.0
  0
LINE
  8
0
 62
     0
 10
10.75
 20
26.0
 30
0.0
 11
10.75
 21
26.0
 31
0.0
  0
LINE
  8
0
 62
     0
 10
10.875
 20
26.0
 30
0.0
 11
10.875
 21
26.0
 31
0.0
  0
LINE
  8
0
 62
     0
 10
11.0
 20
26.0
 30
0.0
 11
11.0
 21
26.0
 31
0.0
  0
LINE
  8
0
 62
     0
 10
11.125
 20
26.0
 30
0.0
 11
11.125
 21
26.0
 31
0.0
  0
LINE
  8
0
 62
     0
 10
11.25
 20
26.0
 30
0.0
 11
11.25
 21
26.0
 31
0.0
  0
LINE
  8
0
 62
     0
 10
11.375
 20
26.0
 30
0.0
 11
11.375
 21
26.0
 31
0.0
  0
LINE
  8
0
 62
     0
 10
11.5
 20
26.0
 30
0.0
 11
11.5
 21
26.0
 31
0.0
  0
LINE
  8
0
 62
     0
 10
11.625
 20
26.0
 30
0.0
 11
11.625
 21
26.0
 31
0.0
  0
ENDBLK
  8
0
  0
BLOCK
  8
0
  2
*X7
 70
    65
 10
0.0
 20
0.0
 30
0.0
  3
*X
  0
LINE
  8
0
 62
     0
 10
8.8125
 20
28.625
 30
0.0
 11
8.8125
 21
28.625
 31
0.0
  0
LINE
  8
0
 62
     0
 10
8.9375
 20
28.625
 30
0.0
 11
8.9375
 21
28.625
 31
0.0
  0
LINE
  8
0
 62
     0
 10
9.0625
 20
28.625
 30
0.0
 11
9.0625
 21
28.625
 31
0.0
  0
LINE
  8
0
 62
     0
 10
9.1875
 20
28.625
 30
0.0
 11
9.1875
 21
28.625
 31
0.0
  0
LINE
  8
0
 62
     0
 10
9.3125
 20
28.625
 30
0.0
 11
9.3125
 21
28.625
 31
0.0
  0
LINE
  8
0
 62
     0
 10
9.4375
 20
28.625
 30
0.0
 11
9.4375
 21
28.625
 31
0.0
  0
LINE
  8
0
 62
     0
 10
9.5625
 20
28.625
 30
0.0
 11
9.5625
 21
28.625
 31
0.0
  0
LINE
  8
0
 62
     0
 10
9.6875
 20
28.625
 30
0.0
 11
9.6875
 21
28.625
 31
0.0
  0
LINE
  8
0
 62
     0
 10
9.8125
 20
28.625
 30
0.0
 11
9.8125
 21
28.625
 31
0.0
  0
LINE
  8
0
 62
     0
 10
9.9375
 20
28.625
 30
0.0
 11
9.9375
 21
28.625
 31
0.0
  0
LINE
  8
0
 62
     0
 10
10.0625
 20
28.625
 30
0.0
 11
10.0625
 21
28.625
 31
0.0
  0
LINE
  8
0
 62
     0
 10
10.1875
 20
28.625
 30
0.0
 11
10.1875
 21
28.625
 31
0.0
  0
LINE
  8
0
 62
     0
 10
10.3125
 20
28.625
 30
0.0
 11
10.3125
 21
28.625
 31
0.0
  0
LINE
  8
0
 62
     0
 10
10.4375
 20
28.625
 30
0.0
 11
10.4375
 21
28.625
 31
0.0
  0
LINE
  8
0
 62
     0
 10
10.5625
 20
28.625
 30
0.0
 11
10.5625
 21
28.625
 31
0.0
  0
LINE
  8
0
 62
     0
 10
10.6875
 20
28.625
 30
0.0
 11
10.6875
 21
28.625
 31
0.0
  0
LINE
  8
0
 62
     0
 10
10.8125
 20
28.625
 30
0.0
 11
10.8125
 21
28.625
 31
0.0
  0
LINE
  8
0
 62
     0
 10
10.9375
 20
28.625
 30
0.0
 11
10.9375
 21
28.625
 31
0.0
  0
LINE
  8
0
 62
     0
 10
11.0625
 20
28.625
 30
0.0
 11
11.0625
 21
28.625
 31
0.0
  0
LINE
  8
0
 62
     0
 10
11.1875
 20
28.625
 30
0.0
 11
11.1875
 21
28.625
 31
0.0
  0
LINE
  8
0
 62
     0
 10
11.3125
 20
28.625
 30
0.0
 11
11.3125
 21
28.625
 31
0.0
  0
LINE
  8
0
 62
     0
 10
11.4375
 20
28.625
 30
0.0
 11
11.4375
 21
28.625
 31
0.0
  0
LINE
  8
0
 62
     0
 10
11.5625
 20
28.625
 30
0.0
 11
11.5625
 21
28.625
 31
0.0
  0
LINE
  8
0
 62
     0
 10
8.875
 20
28.75
 30
0.0
 11
8.875
 21
28.75
 31
0.0
  0
LINE
  8
0
 62
     0
 10
9.0
 20
28.75
 30
0.0
 11
9.0
 21
28.75
 31
0.0
  0
LINE
  8
0
 62
     0
 10
9.125
 20
28.75
 30
0.0
 11
9.125
 21
28.75
 31
0.0
  0
LINE
  8
0
 62
     0
 10
9.25
 20
28.75
 30
0.0
 11
9.25
 21
28.75
 31
0.0
  0
LINE
  8
0
 62
     0
 10
9.375
 20
28.75
 30
0.0
 11
9.375
 21
28.75
 31
0.0
  0
LINE
  8
0
 62
     0
 10
9.5
 20
28.75
 30
0.0
 11
9.5
 21
28.75
 31
0.0
  0
LINE
  8
0
 62
     0
 10
9.625
 20
28.75
 30
0.0
 11
9.625
 21
28.75
 31
0.0
  0
LINE
  8
0
 62
     0
 10
9.75
 20
28.75
 30
0.0
 11
9.75
 21
28.75
 31
0.0
  0
LINE
  8
0
 62
     0
 10
9.875
 20
28.75
 30
0.0
 11
9.875
 21
28.75
 31
0.0
  0
LINE
  8
0
 62
     0
 10
10.0
 20
28.75
 30
0.0
 11
10.0
 21
28.75
 31
0.0
  0
LINE
  8
0
 62
     0
 10
10.125
 20
28.75
 30
0.0
 11
10.125
 21
28.75
 31
0.0
  0
LINE
  8
0
 62
     0
 10
10.25
 20
28.75
 30
0.0
 11
10.25
 21
28.75
 31
0.0
  0
LINE
  8
0
 62
     0
 10
10.375
 20
28.75
 30
0.0
 11
10.375
 21
28.75
 31
0.0
  0
LINE
  8
0
 62
     0
 10
10.5
 20
28.75
 30
0.0
 11
10.5
 21
28.75
 31
0.0
  0
LINE
  8
0
 62
     0
 10
10.625
 20
28.75
 30
0.0
 11
10.625
 21
28.75
 31
0.0
  0
LINE
  8
0
 62
     0
 10
10.75
 20
28.75
 30
0.0
 11
10.75
 21
28.75
 31
0.0
  0
LINE
  8
0
 62
     0
 10
10.875
 20
28.75
 30
0.0
 11
10.875
 21
28.75
 31
0.0
  0
LINE
  8
0
 62
     0
 10
11.0
 20
28.75
 30
0.0
 11
11.0
 21
28.75
 31
0.0
  0
LINE
  8
0
 62
     0
 10
11.125
 20
28.75
 30
0.0
 11
11.125
 21
28.75
 31
0.0
  0
LINE
  8
0
 62
     0
 10
11.25
 20
28.75
 30
0.0
 11
11.25
 21
28.75
 31
0.0
  0
LINE
  8
0
 62
     0
 10
11.375
 20
28.75
 30
0.0
 11
11.375
 21
28.75
 31
0.0
  0
LINE
  8
0
 62
     0
 10
11.5
 20
28.75
 30
0.0
 11
11.5
 21
28.75
 31
0.0
  0
LINE
  8
0
 62
     0
 10
8.8125
 20
28.875
 30
0.0
 11
8.8125
 21
28.875
 31
0.0
  0
LINE
  8
0
 62
     0
 10
8.9375
 20
28.875
 30
0.0
 11
8.9375
 21
28.875
 31
0.0
  0
LINE
  8
0
 62
     0
 10
9.0625
 20
28.875
 30
0.0
 11
9.0625
 21
28.875
 31
0.0
  0
LINE
  8
0
 62
     0
 10
9.1875
 20
28.875
 30
0.0
 11
9.1875
 21
28.875
 31
0.0
  0
LINE
  8
0
 62
     0
 10
9.3125
 20
28.875
 30
0.0
 11
9.3125
 21
28.875
 31
0.0
  0
LINE
  8
0
 62
     0
 10
9.4375
 20
28.875
 30
0.0
 11
9.4375
 21
28.875
 31
0.0
  0
LINE
  8
0
 62
     0
 10
9.5625
 20
28.875
 30
0.0
 11
9.5625
 21
28.875
 31
0.0
  0
LINE
  8
0
 62
     0
 10
9.6875
 20
28.875
 30
0.0
 11
9.6875
 21
28.875
 31
0.0
  0
LINE
  8
0
 62
     0
 10
9.8125
 20
28.875
 30
0.0
 11
9.8125
 21
28.875
 31
0.0
  0
LINE
  8
0
 62
     0
 10
9.9375
 20
28.875
 30
0.0
 11
9.9375
 21
28.875
 31
0.0
  0
LINE
  8
0
 62
     0
 10
10.0625
 20
28.875
 30
0.0
 11
10.0625
 21
28.875
 31
0.0
  0
LINE
  8
0
 62
     0
 10
10.1875
 20
28.875
 30
0.0
 11
10.1875
 21
28.875
 31
0.0
  0
LINE
  8
0
 62
     0
 10
10.3125
 20
28.875
 30
0.0
 11
10.3125
 21
28.875
 31
0.0
  0
LINE
  8
0
 62
     0
 10
10.4375
 20
28.875
 30
0.0
 11
10.4375
 21
28.875
 31
0.0
  0
LINE
  8
0
 62
     0
 10
10.5625
 20
28.875
 30
0.0
 11
10.5625
 21
28.875
 31
0.0
  0
LINE
  8
0
 62
     0
 10
10.6875
 20
28.875
 30
0.0
 11
10.6875
 21
28.875
 31
0.0
  0
LINE
  8
0
 62
     0
 10
10.8125
 20
28.875
 30
0.0
 11
10.8125
 21
28.875
 31
0.0
  0
LINE
  8
0
 62
     0
 10
10.9375
 20
28.875
 30
0.0
 11
10.9375
 21
28.875
 31
0.0
  0
LINE
  8
0
 62
     0
 10
11.0625
 20
28.875
 30
0.0
 11
11.0625
 21
28.875
 31
0.0
  0
LINE
  8
0
 62
     0
 10
11.1875
 20
28.875
 30
0.0
 11
11.1875
 21
28.875
 31
0.0
  0
LINE
  8
0
 62
     0
 10
11.3125
 20
28.875
 30
0.0
 11
11.3125
 21
28.875
 31
0.0
  0
LINE
  8
0
 62
     0
 10
11.4375
 20
28.875
 30
0.0
 11
11.4375
 21
28.875
 31
0.0
  0
LINE
  8
0
 62
     0
 10
11.5625
 20
28.875
 30
0.0
 11
11.5625
 21
28.875
 31
0.0
  0
LINE
  8
0
 62
     0
 10
8.75
 20
28.5
 30
0.0
 11
8.75
 21
28.5
 31
0.0
  0
LINE
  8
0
 62
     0
 10
8.875
 20
28.5
 30
0.0
 11
8.875
 21
28.5
 31
0.0
  0
LINE
  8
0
 62
     0
 10
9.0
 20
28.5
 30
0.0
 11
9.0
 21
28.5
 31
0.0
  0
LINE
  8
0
 62
     0
 10
9.125
 20
28.5
 30
0.0
 11
9.125
 21
28.5
 31
0.0
  0
LINE
  8
0
 62
     0
 10
9.25
 20
28.5
 30
0.0
 11
9.25
 21
28.5
 31
0.0
  0
LINE
  8
0
 62
     0
 10
9.375
 20
28.5
 30
0.0
 11
9.375
 21
28.5
 31
0.0
  0
LINE
  8
0
 62
     0
 10
9.5
 20
28.5
 30
0.0
 11
9.5
 21
28.5
 31
0.0
  0
LINE
  8
0
 62
     0
 10
9.625
 20
28.5
 30
0.0
 11
9.625
 21
28.5
 31
0.0
  0
LINE
  8
0
 62
     0
 10
9.75
 20
28.5
 30
0.0
 11
9.75
 21
28.5
 31
0.0
  0
LINE
  8
0
 62
     0
 10
9.875
 20
28.5
 30
0.0
 11
9.875
 21
28.5
 31
0.0
  0
LINE
  8
0
 62
     0
 10
10.0
 20
28.5
 30
0.0
 11
10.0
 21
28.5
 31
0.0
  0
LINE
  8
0
 62
     0
 10
10.125
 20
28.5
 30
0.0
 11
10.125
 21
28.5
 31
0.0
  0
LINE
  8
0
 62
     0
 10
10.25
 20
28.5
 30
0.0
 11
10.25
 21
28.5
 31
0.0
  0
LINE
  8
0
 62
     0
 10
10.375
 20
28.5
 30
0.0
 11
10.375
 21
28.5
 31
0.0
  0
LINE
  8
0
 62
     0
 10
10.5
 20
28.5
 30
0.0
 11
10.5
 21
28.5
 31
0.0
  0
LINE
  8
0
 62
     0
 10
10.625
 20
28.5
 30
0.0
 11
10.625
 21
28.5
 31
0.0
  0
LINE
  8
0
 62
     0
 10
10.75
 20
28.5
 30
0.0
 11
10.75
 21
28.5
 31
0.0
  0
LINE
  8
0
 62
     0
 10
10.875
 20
28.5
 30
0.0
 11
10.875
 21
28.5
 31
0.0
  0
LINE
  8
0
 62
     0
 10
11.0
 20
28.5
 30
0.0
 11
11.0
 21
28.5
 31
0.0
  0
LINE
  8
0
 62
     0
 10
11.125
 20
28.5
 30
0.0
 11
11.125
 21
28.5
 31
0.0
  0
LINE
  8
0
 62
     0
 10
11.25
 20
28.5
 30
0.0
 11
11.25
 21
28.5
 31
0.0
  0
LINE
  8
0
 62
     0
 10
11.375
 20
28.5
 30
0.0
 11
11.375
 21
28.5
 31
0.0
  0
LINE
  8
0
 62
     0
 10
11.5
 20
28.5
 30
0.0
 11
11.5
 21
28.5
 31
0.0
  0
LINE
  8
0
 62
     0
 10
11.625
 20
28.5
 30
0.0
 11
11.625
 21
28.5
 31
0.0
  0
ENDBLK
  8
0
  0
BLOCK
  8
0
  2
*X8
 70
    65
 10
0.0
 20
0.0
 30
0.0
  3
*X
  0
LINE
  8
0
 62
     0
 10
8.8125
 20
18.625
 30
0.0
 11
8.8125
 21
18.625
 31
0.0
  0
LINE
  8
0
 62
     0
 10
8.9375
 20
18.625
 30
0.0
 11
8.9375
 21
18.625
 31
0.0
  0
LINE
  8
0
 62
     0
 10
9.0625
 20
18.625
 30
0.0
 11
9.0625
 21
18.625
 31
0.0
  0
LINE
  8
0
 62
     0
 10
9.1875
 20
18.625
 30
0.0
 11
9.1875
 21
18.625
 31
0.0
  0
LINE
  8
0
 62
     0
 10
9.3125
 20
18.625
 30
0.0
 11
9.3125
 21
18.625
 31
0.0
  0
LINE
  8
0
 62
     0
 10
9.4375
 20
18.625
 30
0.0
 11
9.4375
 21
18.625
 31
0.0
  0
LINE
  8
0
 62
     0
 10
9.5625
 20
18.625
 30
0.0
 11
9.5625
 21
18.625
 31
0.0
  0
LINE
  8
0
 62
     0
 10
9.6875
 20
18.625
 30
0.0
 11
9.6875
 21
18.625
 31
0.0
  0
LINE
  8
0
 62
     0
 10
9.8125
 20
18.625
 30
0.0
 11
9.8125
 21
18.625
 31
0.0
  0
LINE
  8
0
 62
     0
 10
9.9375
 20
18.625
 30
0.0
 11
9.9375
 21
18.625
 31
0.0
  0
LINE
  8
0
 62
     0
 10
10.0625
 20
18.625
 30
0.0
 11
10.0625
 21
18.625
 31
0.0
  0
LINE
  8
0
 62
     0
 10
10.1875
 20
18.625
 30
0.0
 11
10.1875
 21
18.625
 31
0.0
  0
LINE
  8
0
 62
     0
 10
10.3125
 20
18.625
 30
0.0
 11
10.3125
 21
18.625
 31
0.0
  0
LINE
  8
0
 62
     0
 10
10.4375
 20
18.625
 30
0.0
 11
10.4375
 21
18.625
 31
0.0
  0
LINE
  8
0
 62
     0
 10
10.5625
 20
18.625
 30
0.0
 11
10.5625
 21
18.625
 31
0.0
  0
LINE
  8
0
 62
     0
 10
10.6875
 20
18.625
 30
0.0
 11
10.6875
 21
18.625
 31
0.0
  0
LINE
  8
0
 62
     0
 10
10.8125
 20
18.625
 30
0.0
 11
10.8125
 21
18.625
 31
0.0
  0
LINE
  8
0
 62
     0
 10
10.9375
 20
18.625
 30
0.0
 11
10.9375
 21
18.625
 31
0.0
  0
LINE
  8
0
 62
     0
 10
11.0625
 20
18.625
 30
0.0
 11
11.0625
 21
18.625
 31
0.0
  0
LINE
  8
0
 62
     0
 10
11.1875
 20
18.625
 30
0.0
 11
11.1875
 21
18.625
 31
0.0
  0
LINE
  8
0
 62
     0
 10
11.3125
 20
18.625
 30
0.0
 11
11.3125
 21
18.625
 31
0.0
  0
LINE
  8
0
 62
     0
 10
11.4375
 20
18.625
 30
0.0
 11
11.4375
 21
18.625
 31
0.0
  0
LINE
  8
0
 62
     0
 10
11.5625
 20
18.625
 30
0.0
 11
11.5625
 21
18.625
 31
0.0
  0
LINE
  8
0
 62
     0
 10
8.875
 20
18.75
 30
0.0
 11
8.875
 21
18.75
 31
0.0
  0
LINE
  8
0
 62
     0
 10
9.0
 20
18.75
 30
0.0
 11
9.0
 21
18.75
 31
0.0
  0
LINE
  8
0
 62
     0
 10
9.125
 20
18.75
 30
0.0
 11
9.125
 21
18.75
 31
0.0
  0
LINE
  8
0
 62
     0
 10
9.25
 20
18.75
 30
0.0
 11
9.25
 21
18.75
 31
0.0
  0
LINE
  8
0
 62
     0
 10
9.375
 20
18.75
 30
0.0
 11
9.375
 21
18.75
 31
0.0
  0
LINE
  8
0
 62
     0
 10
9.5
 20
18.75
 30
0.0
 11
9.5
 21
18.75
 31
0.0
  0
LINE
  8
0
 62
     0
 10
9.625
 20
18.75
 30
0.0
 11
9.625
 21
18.75
 31
0.0
  0
LINE
  8
0
 62
     0
 10
9.75
 20
18.75
 30
0.0
 11
9.75
 21
18.75
 31
0.0
  0
LINE
  8
0
 62
     0
 10
9.875
 20
18.75
 30
0.0
 11
9.875
 21
18.75
 31
0.0
  0
LINE
  8
0
 62
     0
 10
10.0
 20
18.75
 30
0.0
 11
10.0
 21
18.75
 31
0.0
  0
LINE
  8
0
 62
     0
 10
10.125
 20
18.75
 30
0.0
 11
10.125
 21
18.75
 31
0.0
  0
LINE
  8
0
 62
     0
 10
10.25
 20
18.75
 30
0.0
 11
10.25
 21
18.75
 31
0.0
  0
LINE
  8
0
 62
     0
 10
10.375
 20
18.75
 30
0.0
 11
10.375
 21
18.75
 31
0.0
  0
LINE
  8
0
 62
     0
 10
10.5
 20
18.75
 30
0.0
 11
10.5
 21
18.75
 31
0.0
  0
LINE
  8
0
 62
     0
 10
10.625
 20
18.75
 30
0.0
 11
10.625
 21
18.75
 31
0.0
  0
LINE
  8
0
 62
     0
 10
10.75
 20
18.75
 30
0.0
 11
10.75
 21
18.75
 31
0.0
  0
LINE
  8
0
 62
     0
 10
10.875
 20
18.75
 30
0.0
 11
10.875
 21
18.75
 31
0.0
  0
LINE
  8
0
 62
     0
 10
11.0
 20
18.75
 30
0.0
 11
11.0
 21
18.75
 31
0.0
  0
LINE
  8
0
 62
     0
 10
11.125
 20
18.75
 30
0.0
 11
11.125
 21
18.75
 31
0.0
  0
LINE
  8
0
 62
     0
 10
11.25
 20
18.75
 30
0.0
 11
11.25
 21
18.75
 31
0.0
  0
LINE
  8
0
 62
     0
 10
11.375
 20
18.75
 30
0.0
 11
11.375
 21
18.75
 31
0.0
  0
LINE
  8
0
 62
     0
 10
11.5
 20
18.75
 30
0.0
 11
11.5
 21
18.75
 31
0.0
  0
LINE
  8
0
 62
     0
 10
8.8125
 20
18.875
 30
0.0
 11
8.8125
 21
18.875
 31
0.0
  0
LINE
  8
0
 62
     0
 10
8.9375
 20
18.875
 30
0.0
 11
8.9375
 21
18.875
 31
0.0
  0
LINE
  8
0
 62
     0
 10
9.0625
 20
18.875
 30
0.0
 11
9.0625
 21
18.875
 31
0.0
  0
LINE
  8
0
 62
     0
 10
9.1875
 20
18.875
 30
0.0
 11
9.1875
 21
18.875
 31
0.0
  0
LINE
  8
0
 62
     0
 10
9.3125
 20
18.875
 30
0.0
 11
9.3125
 21
18.875
 31
0.0
  0
LINE
  8
0
 62
     0
 10
9.4375
 20
18.875
 30
0.0
 11
9.4375
 21
18.875
 31
0.0
  0
LINE
  8
0
 62
     0
 10
9.5625
 20
18.875
 30
0.0
 11
9.5625
 21
18.875
 31
0.0
  0
LINE
  8
0
 62
     0
 10
9.6875
 20
18.875
 30
0.0
 11
9.6875
 21
18.875
 31
0.0
  0
LINE
  8
0
 62
     0
 10
9.8125
 20
18.875
 30
0.0
 11
9.8125
 21
18.875
 31
0.0
  0
LINE
  8
0
 62
     0
 10
9.9375
 20
18.875
 30
0.0
 11
9.9375
 21
18.875
 31
0.0
  0
LINE
  8
0
 62
     0
 10
10.0625
 20
18.875
 30
0.0
 11
10.0625
 21
18.875
 31
0.0
  0
LINE
  8
0
 62
     0
 10
10.1875
 20
18.875
 30
0.0
 11
10.1875
 21
18.875
 31
0.0
  0
LINE
  8
0
 62
     0
 10
10.3125
 20
18.875
 30
0.0
 11
10.3125
 21
18.875
 31
0.0
  0
LINE
  8
0
 62
     0
 10
10.4375
 20
18.875
 30
0.0
 11
10.4375
 21
18.875
 31
0.0
  0
LINE
  8
0
 62
     0
 10
10.5625
 20
18.875
 30
0.0
 11
10.5625
 21
18.875
 31
0.0
  0
LINE
  8
0
 62
     0
 10
10.6875
 20
18.875
 30
0.0
 11
10.6875
 21
18.875
 31
0.0
  0
LINE
  8
0
 62
     0
 10
10.8125
 20
18.875
 30
0.0
 11
10.8125
 21
18.875
 31
0.0
  0
LINE
  8
0
 62
     0
 10
10.9375
 20
18.875
 30
0.0
 11
10.9375
 21
18.875
 31
0.0
  0
LINE
  8
0
 62
     0
 10
11.0625
 20
18.875
 30
0.0
 11
11.0625
 21
18.875
 31
0.0
  0
LINE
  8
0
 62
     0
 10
11.1875
 20
18.875
 30
0.0
 11
11.1875
 21
18.875
 31
0.0
  0
LINE
  8
0
 62
     0
 10
11.3125
 20
18.875
 30
0.0
 11
11.3125
 21
18.875
 31
0.0
  0
LINE
  8
0
 62
     0
 10
11.4375
 20
18.875
 30
0.0
 11
11.4375
 21
18.875
 31
0.0
  0
LINE
  8
0
 62
     0
 10
11.5625
 20
18.875
 30
0.0
 11
11.5625
 21
18.875
 31
0.0
  0
LINE
  8
0
 62
     0
 10
8.75
 20
18.5
 30
0.0
 11
8.75
 21
18.5
 31
0.0
  0
LINE
  8
0
 62
     0
 10
8.875
 20
18.5
 30
0.0
 11
8.875
 21
18.5
 31
0.0
  0
LINE
  8
0
 62
     0
 10
9.0
 20
18.5
 30
0.0
 11
9.0
 21
18.5
 31
0.0
  0
LINE
  8
0
 62
     0
 10
9.125
 20
18.5
 30
0.0
 11
9.125
 21
18.5
 31
0.0
  0
LINE
  8
0
 62
     0
 10
9.25
 20
18.5
 30
0.0
 11
9.25
 21
18.5
 31
0.0
  0
LINE
  8
0
 62
     0
 10
9.375
 20
18.5
 30
0.0
 11
9.375
 21
18.5
 31
0.0
  0
LINE
  8
0
 62
     0
 10
9.5
 20
18.5
 30
0.0
 11
9.5
 21
18.5
 31
0.0
  0
LINE
  8
0
 62
     0
 10
9.625
 20
18.5
 30
0.0
 11
9.625
 21
18.5
 31
0.0
  0
LINE
  8
0
 62
     0
 10
9.75
 20
18.5
 30
0.0
 11
9.75
 21
18.5
 31
0.0
  0
LINE
  8
0
 62
     0
 10
9.875
 20
18.5
 30
0.0
 11
9.875
 21
18.5
 31
0.0
  0
LINE
  8
0
 62
     0
 10
10.0
 20
18.5
 30
0.0
 11
10.0
 21
18.5
 31
0.0
  0
LINE
  8
0
 62
     0
 10
10.125
 20
18.5
 30
0.0
 11
10.125
 21
18.5
 31
0.0
  0
LINE
  8
0
 62
     0
 10
10.25
 20
18.5
 30
0.0
 11
10.25
 21
18.5
 31
0.0
  0
LINE
  8
0
 62
     0
 10
10.375
 20
18.5
 30
0.0
 11
10.375
 21
18.5
 31
0.0
  0
LINE
  8
0
 62
     0
 10
10.5
 20
18.5
 30
0.0
 11
10.5
 21
18.5
 31
0.0
  0
LINE
  8
0
 62
     0
 10
10.625
 20
18.5
 30
0.0
 11
10.625
 21
18.5
 31
0.0
  0
LINE
  8
0
 62
     0
 10
10.75
 20
18.5
 30
0.0
 11
10.75
 21
18.5
 31
0.0
  0
LINE
  8
0
 62
     0
 10
10.875
 20
18.5
 30
0.0
 11
10.875
 21
18.5
 31
0.0
  0
LINE
  8
0
 62
     0
 10
11.0
 20
18.5
 30
0.0
 11
11.0
 21
18.5
 31
0.0
  0
LINE
  8
0
 62
     0
 10
11.125
 20
18.5
 30
0.0
 11
11.125
 21
18.5
 31
0.0
  0
LINE
  8
0
 62
     0
 10
11.25
 20
18.5
 30
0.0
 11
11.25
 21
18.5
 31
0.0
  0
LINE
  8
0
 62
     0
 10
11.375
 20
18.5
 30
0.0
 11
11.375
 21
18.5
 31
0.0
  0
LINE
  8
0
 62
     0
 10
11.5
 20
18.5
 30
0.0
 11
11.5
 21
18.5
 31
0.0
  0
LINE
  8
0
 62
     0
 10
11.625
 20
18.5
 30
0.0
 11
11.625
 21
18.5
 31
0.0
  0
ENDBLK
  8
0
  0
BLOCK
  8
0
  2
*X9
 70
    65
 10
0.0
 20
0.0
 30
0.0
  3
*X
  0
LINE
  8
0
 62
     0
 10
8.8125
 20
16.125
 30
0.0
 11
8.8125
 21
16.125
 31
0.0
  0
LINE
  8
0
 62
     0
 10
8.9375
 20
16.125
 30
0.0
 11
8.9375
 21
16.125
 31
0.0
  0
LINE
  8
0
 62
     0
 10
9.0625
 20
16.125
 30
0.0
 11
9.0625
 21
16.125
 31
0.0
  0
LINE
  8
0
 62
     0
 10
9.1875
 20
16.125
 30
0.0
 11
9.1875
 21
16.125
 31
0.0
  0
LINE
  8
0
 62
     0
 10
9.3125
 20
16.125
 30
0.0
 11
9.3125
 21
16.125
 31
0.0
  0
LINE
  8
0
 62
     0
 10
9.4375
 20
16.125
 30
0.0
 11
9.4375
 21
16.125
 31
0.0
  0
LINE
  8
0
 62
     0
 10
9.5625
 20
16.125
 30
0.0
 11
9.5625
 21
16.125
 31
0.0
  0
LINE
  8
0
 62
     0
 10
9.6875
 20
16.125
 30
0.0
 11
9.6875
 21
16.125
 31
0.0
  0
LINE
  8
0
 62
     0
 10
9.8125
 20
16.125
 30
0.0
 11
9.8125
 21
16.125
 31
0.0
  0
LINE
  8
0
 62
     0
 10
9.9375
 20
16.125
 30
0.0
 11
9.9375
 21
16.125
 31
0.0
  0
LINE
  8
0
 62
     0
 10
10.0625
 20
16.125
 30
0.0
 11
10.0625
 21
16.125
 31
0.0
  0
LINE
  8
0
 62
     0
 10
10.1875
 20
16.125
 30
0.0
 11
10.1875
 21
16.125
 31
0.0
  0
LINE
  8
0
 62
     0
 10
10.3125
 20
16.125
 30
0.0
 11
10.3125
 21
16.125
 31
0.0
  0
LINE
  8
0
 62
     0
 10
10.4375
 20
16.125
 30
0.0
 11
10.4375
 21
16.125
 31
0.0
  0
LINE
  8
0
 62
     0
 10
10.5625
 20
16.125
 30
0.0
 11
10.5625
 21
16.125
 31
0.0
  0
LINE
  8
0
 62
     0
 10
10.6875
 20
16.125
 30
0.0
 11
10.6875
 21
16.125
 31
0.0
  0
LINE
  8
0
 62
     0
 10
10.8125
 20
16.125
 30
0.0
 11
10.8125
 21
16.125
 31
0.0
  0
LINE
  8
0
 62
     0
 10
10.9375
 20
16.125
 30
0.0
 11
10.9375
 21
16.125
 31
0.0
  0
LINE
  8
0
 62
     0
 10
11.0625
 20
16.125
 30
0.0
 11
11.0625
 21
16.125
 31
0.0
  0
LINE
  8
0
 62
     0
 10
11.1875
 20
16.125
 30
0.0
 11
11.1875
 21
16.125
 31
0.0
  0
LINE
  8
0
 62
     0
 10
11.3125
 20
16.125
 30
0.0
 11
11.3125
 21
16.125
 31
0.0
  0
LINE
  8
0
 62
     0
 10
11.4375
 20
16.125
 30
0.0
 11
11.4375
 21
16.125
 31
0.0
  0
LINE
  8
0
 62
     0
 10
11.5625
 20
16.125
 30
0.0
 11
11.5625
 21
16.125
 31
0.0
  0
LINE
  8
0
 62
     0
 10
8.875
 20
16.25
 30
0.0
 11
8.875
 21
16.25
 31
0.0
  0
LINE
  8
0
 62
     0
 10
9.0
 20
16.25
 30
0.0
 11
9.0
 21
16.25
 31
0.0
  0
LINE
  8
0
 62
     0
 10
9.125
 20
16.25
 30
0.0
 11
9.125
 21
16.25
 31
0.0
  0
LINE
  8
0
 62
     0
 10
9.25
 20
16.25
 30
0.0
 11
9.25
 21
16.25
 31
0.0
  0
LINE
  8
0
 62
     0
 10
9.375
 20
16.25
 30
0.0
 11
9.375
 21
16.25
 31
0.0
  0
LINE
  8
0
 62
     0
 10
9.5
 20
16.25
 30
0.0
 11
9.5
 21
16.25
 31
0.0
  0
LINE
  8
0
 62
     0
 10
9.625
 20
16.25
 30
0.0
 11
9.625
 21
16.25
 31
0.0
  0
LINE
  8
0
 62
     0
 10
9.75
 20
16.25
 30
0.0
 11
9.75
 21
16.25
 31
0.0
  0
LINE
  8
0
 62
     0
 10
9.875
 20
16.25
 30
0.0
 11
9.875
 21
16.25
 31
0.0
  0
LINE
  8
0
 62
     0
 10
10.0
 20
16.25
 30
0.0
 11
10.0
 21
16.25
 31
0.0
  0
LINE
  8
0
 62
     0
 10
10.125
 20
16.25
 30
0.0
 11
10.125
 21
16.25
 31
0.0
  0
LINE
  8
0
 62
     0
 10
10.25
 20
16.25
 30
0.0
 11
10.25
 21
16.25
 31
0.0
  0
LINE
  8
0
 62
     0
 10
10.375
 20
16.25
 30
0.0
 11
10.375
 21
16.25
 31
0.0
  0
LINE
  8
0
 62
     0
 10
10.5
 20
16.25
 30
0.0
 11
10.5
 21
16.25
 31
0.0
  0
LINE
  8
0
 62
     0
 10
10.625
 20
16.25
 30
0.0
 11
10.625
 21
16.25
 31
0.0
  0
LINE
  8
0
 62
     0
 10
10.75
 20
16.25
 30
0.0
 11
10.75
 21
16.25
 31
0.0
  0
LINE
  8
0
 62
     0
 10
10.875
 20
16.25
 30
0.0
 11
10.875
 21
16.25
 31
0.0
  0
LINE
  8
0
 62
     0
 10
11.0
 20
16.25
 30
0.0
 11
11.0
 21
16.25
 31
0.0
  0
LINE
  8
0
 62
     0
 10
11.125
 20
16.25
 30
0.0
 11
11.125
 21
16.25
 31
0.0
  0
LINE
  8
0
 62
     0
 10
11.25
 20
16.25
 30
0.0
 11
11.25
 21
16.25
 31
0.0
  0
LINE
  8
0
 62
     0
 10
11.375
 20
16.25
 30
0.0
 11
11.375
 21
16.25
 31
0.0
  0
LINE
  8
0
 62
     0
 10
11.5
 20
16.25
 30
0.0
 11
11.5
 21
16.25
 31
0.0
  0
LINE
  8
0
 62
     0
 10
8.8125
 20
16.375
 30
0.0
 11
8.8125
 21
16.375
 31
0.0
  0
LINE
  8
0
 62
     0
 10
8.9375
 20
16.375
 30
0.0
 11
8.9375
 21
16.375
 31
0.0
  0
LINE
  8
0
 62
     0
 10
9.0625
 20
16.375
 30
0.0
 11
9.0625
 21
16.375
 31
0.0
  0
LINE
  8
0
 62
     0
 10
9.1875
 20
16.375
 30
0.0
 11
9.1875
 21
16.375
 31
0.0
  0
LINE
  8
0
 62
     0
 10
9.3125
 20
16.375
 30
0.0
 11
9.3125
 21
16.375
 31
0.0
  0
LINE
  8
0
 62
     0
 10
9.4375
 20
16.375
 30
0.0
 11
9.4375
 21
16.375
 31
0.0
  0
LINE
  8
0
 62
     0
 10
9.5625
 20
16.375
 30
0.0
 11
9.5625
 21
16.375
 31
0.0
  0
LINE
  8
0
 62
     0
 10
9.6875
 20
16.375
 30
0.0
 11
9.6875
 21
16.375
 31
0.0
  0
LINE
  8
0
 62
     0
 10
9.8125
 20
16.375
 30
0.0
 11
9.8125
 21
16.375
 31
0.0
  0
LINE
  8
0
 62
     0
 10
9.9375
 20
16.375
 30
0.0
 11
9.9375
 21
16.375
 31
0.0
  0
LINE
  8
0
 62
     0
 10
10.0625
 20
16.375
 30
0.0
 11
10.0625
 21
16.375
 31
0.0
  0
LINE
  8
0
 62
     0
 10
10.1875
 20
16.375
 30
0.0
 11
10.1875
 21
16.375
 31
0.0
  0
LINE
  8
0
 62
     0
 10
10.3125
 20
16.375
 30
0.0
 11
10.3125
 21
16.375
 31
0.0
  0
LINE
  8
0
 62
     0
 10
10.4375
 20
16.375
 30
0.0
 11
10.4375
 21
16.375
 31
0.0
  0
LINE
  8
0
 62
     0
 10
10.5625
 20
16.375
 30
0.0
 11
10.5625
 21
16.375
 31
0.0
  0
LINE
  8
0
 62
     0
 10
10.6875
 20
16.375
 30
0.0
 11
10.6875
 21
16.375
 31
0.0
  0
LINE
  8
0
 62
     0
 10
10.8125
 20
16.375
 30
0.0
 11
10.8125
 21
16.375
 31
0.0
  0
LINE
  8
0
 62
     0
 10
10.9375
 20
16.375
 30
0.0
 11
10.9375
 21
16.375
 31
0.0
  0
LINE
  8
0
 62
     0
 10
11.0625
 20
16.375
 30
0.0
 11
11.0625
 21
16.375
 31
0.0
  0
LINE
  8
0
 62
     0
 10
11.1875
 20
16.375
 30
0.0
 11
11.1875
 21
16.375
 31
0.0
  0
LINE
  8
0
 62
     0
 10
11.3125
 20
16.375
 30
0.0
 11
11.3125
 21
16.375
 31
0.0
  0
LINE
  8
0
 62
     0
 10
11.4375
 20
16.375
 30
0.0
 11
11.4375
 21
16.375
 31
0.0
  0
LINE
  8
0
 62
     0
 10
11.5625
 20
16.375
 30
0.0
 11
11.5625
 21
16.375
 31
0.0
  0
LINE
  8
0
 62
     0
 10
8.75
 20
16.0
 30
0.0
 11
8.75
 21
16.0
 31
0.0
  0
LINE
  8
0
 62
     0
 10
8.875
 20
16.0
 30
0.0
 11
8.875
 21
16.0
 31
0.0
  0
LINE
  8
0
 62
     0
 10
9.0
 20
16.0
 30
0.0
 11
9.0
 21
16.0
 31
0.0
  0
LINE
  8
0
 62
     0
 10
9.125
 20
16.0
 30
0.0
 11
9.125
 21
16.0
 31
0.0
  0
LINE
  8
0
 62
     0
 10
9.25
 20
16.0
 30
0.0
 11
9.25
 21
16.0
 31
0.0
  0
LINE
  8
0
 62
     0
 10
9.375
 20
16.0
 30
0.0
 11
9.375
 21
16.0
 31
0.0
  0
LINE
  8
0
 62
     0
 10
9.5
 20
16.0
 30
0.0
 11
9.5
 21
16.0
 31
0.0
  0
LINE
  8
0
 62
     0
 10
9.625
 20
16.0
 30
0.0
 11
9.625
 21
16.0
 31
0.0
  0
LINE
  8
0
 62
     0
 10
9.75
 20
16.0
 30
0.0
 11
9.75
 21
16.0
 31
0.0
  0
LINE
  8
0
 62
     0
 10
9.875
 20
16.0
 30
0.0
 11
9.875
 21
16.0
 31
0.0
  0
LINE
  8
0
 62
     0
 10
10.0
 20
16.0
 30
0.0
 11
10.0
 21
16.0
 31
0.0
  0
LINE
  8
0
 62
     0
 10
10.125
 20
16.0
 30
0.0
 11
10.125
 21
16.0
 31
0.0
  0
LINE
  8
0
 62
     0
 10
10.25
 20
16.0
 30
0.0
 11
10.25
 21
16.0
 31
0.0
  0
LINE
  8
0
 62
     0
 10
10.375
 20
16.0
 30
0.0
 11
10.375
 21
16.0
 31
0.0
  0
LINE
  8
0
 62
     0
 10
10.5
 20
16.0
 30
0.0
 11
10.5
 21
16.0
 31
0.0
  0
LINE
  8
0
 62
     0
 10
10.625
 20
16.0
 30
0.0
 11
10.625
 21
16.0
 31
0.0
  0
LINE
  8
0
 62
     0
 10
10.75
 20
16.0
 30
0.0
 11
10.75
 21
16.0
 31
0.0
  0
LINE
  8
0
 62
     0
 10
10.875
 20
16.0
 30
0.0
 11
10.875
 21
16.0
 31
0.0
  0
LINE
  8
0
 62
     0
 10
11.0
 20
16.0
 30
0.0
 11
11.0
 21
16.0
 31
0.0
  0
LINE
  8
0
 62
     0
 10
11.125
 20
16.0
 30
0.0
 11
11.125
 21
16.0
 31
0.0
  0
LINE
  8
0
 62
     0
 10
11.25
 20
16.0
 30
0.0
 11
11.25
 21
16.0
 31
0.0
  0
LINE
  8
0
 62
     0
 10
11.375
 20
16.0
 30
0.0
 11
11.375
 21
16.0
 31
0.0
  0
LINE
  8
0
 62
     0
 10
11.5
 20
16.0
 30
0.0
 11
11.5
 21
16.0
 31
0.0
  0
LINE
  8
0
 62
     0
 10
11.625
 20
16.0
 30
0.0
 11
11.625
 21
16.0
 31
0.0
  0
ENDBLK
  8
0
  0
BLOCK
  8
0
  2
*X10
 70
    65
 10
0.0
 20
0.0
 30
0.0
  3
*X
  0
LINE
  8
0
 62
     0
 10
10.482421
 20
27.099431
 30
0.0
 11
11.876801
 21
28.49381
 31
0.0
  0
LINE
  8
0
 62
     0
 10
10.128868
 20
27.099431
 30
0.0
 11
11.587881
 21
28.558444
 31
0.0
  0
LINE
  8
0
 62
     0
 10
9.775314
 20
27.099431
 30
0.0
 11
11.283137
 21
28.607253
 31
0.0
  0
LINE
  8
0
 62
     0
 10
9.421761
 20
27.099431
 30
0.0
 11
10.960248
 21
28.637917
 31
0.0
  0
LINE
  8
0
 62
     0
 10
9.068208
 20
27.099431
 30
0.0
 11
10.615966
 21
28.647189
 31
0.0
  0
LINE
  8
0
 62
     0
 10
8.714654
 20
27.099431
 30
0.0
 11
10.245528
 21
28.630304
 31
0.0
  0
LINE
  8
0
 62
     0
 10
8.387162
 20
27.125492
 30
0.0
 11
9.841451
 21
28.579781
 31
0.0
  0
LINE
  8
0
 62
     0
 10
8.387162
 20
27.479045
 30
0.0
 11
9.3907
 21
28.482583
 31
0.0
  0
LINE
  8
0
 62
     0
 10
8.387162
 20
27.832599
 30
0.0
 11
8.866239
 21
28.311675
 31
0.0
  0
LINE
  8
0
 62
     0
 10
10.835975
 20
27.099431
 30
0.0
 11
12.151615
 21
28.415071
 31
0.0
  0
LINE
  8
0
 62
     0
 10
11.189528
 20
27.099431
 30
0.0
 11
12.413625
 21
28.323528
 31
0.0
  0
LINE
  8
0
 62
     0
 10
11.543081
 20
27.099431
 30
0.0
 11
12.663837
 21
28.220186
 31
0.0
  0
LINE
  8
0
 62
     0
 10
11.896635
 20
27.099431
 30
0.0
 11
12.903033
 21
28.105829
 31
0.0
  0
LINE
  8
0
 62
     0
 10
12.250188
 20
27.099431
 30
0.0
 11
12.923479
 21
27.772721
 31
0.0
  0
LINE
  8
0
 62
     0
 10
12.603742
 20
27.099431
 30
0.0
 11
12.923479
 21
27.419168
 31
0.0
  0
ENDBLK
  8
0
  0
BLOCK
  8
0
  2
*X11
 70
    65
 10
0.0
 20
0.0
 30
0.0
  3
*X
  0
LINE
  8
0
 62
     0
 10
9.1875
 20
9.125
 30
0.0
 11
9.1875
 21
9.125
 31
0.0
  0
LINE
  8
0
 62
     0
 10
9.3125
 20
9.125
 30
0.0
 11
9.3125
 21
9.125
 31
0.0
  0
LINE
  8
0
 62
     0
 10
9.4375
 20
9.125
 30
0.0
 11
9.4375
 21
9.125
 31
0.0
  0
LINE
  8
0
 62
     0
 10
9.5625
 20
9.125
 30
0.0
 11
9.5625
 21
9.125
 31
0.0
  0
LINE
  8
0
 62
     0
 10
9.6875
 20
9.125
 30
0.0
 11
9.6875
 21
9.125
 31
0.0
  0
LINE
  8
0
 62
     0
 10
9.8125
 20
9.125
 30
0.0
 11
9.8125
 21
9.125
 31
0.0
  0
LINE
  8
0
 62
     0
 10
9.9375
 20
9.125
 30
0.0
 11
9.9375
 21
9.125
 31
0.0
  0
LINE
  8
0
 62
     0
 10
10.0625
 20
9.125
 30
0.0
 11
10.0625
 21
9.125
 31
0.0
  0
LINE
  8
0
 62
     0
 10
10.1875
 20
9.125
 30
0.0
 11
10.1875
 21
9.125
 31
0.0
  0
LINE
  8
0
 62
     0
 10
10.3125
 20
9.125
 30
0.0
 11
10.3125
 21
9.125
 31
0.0
  0
LINE
  8
0
 62
     0
 10
10.4375
 20
9.125
 30
0.0
 11
10.4375
 21
9.125
 31
0.0
  0
LINE
  8
0
 62
     0
 10
10.5625
 20
9.125
 30
0.0
 11
10.5625
 21
9.125
 31
0.0
  0
LINE
  8
0
 62
     0
 10
10.6875
 20
9.125
 30
0.0
 11
10.6875
 21
9.125
 31
0.0
  0
LINE
  8
0
 62
     0
 10
9.25
 20
9.25
 30
0.0
 11
9.25
 21
9.25
 31
0.0
  0
LINE
  8
0
 62
     0
 10
9.375
 20
9.25
 30
0.0
 11
9.375
 21
9.25
 31
0.0
  0
LINE
  8
0
 62
     0
 10
9.5
 20
9.25
 30
0.0
 11
9.5
 21
9.25
 31
0.0
  0
LINE
  8
0
 62
     0
 10
9.625
 20
9.25
 30
0.0
 11
9.625
 21
9.25
 31
0.0
  0
LINE
  8
0
 62
     0
 10
9.75
 20
9.25
 30
0.0
 11
9.75
 21
9.25
 31
0.0
  0
LINE
  8
0
 62
     0
 10
9.875
 20
9.25
 30
0.0
 11
9.875
 21
9.25
 31
0.0
  0
LINE
  8
0
 62
     0
 10
10.0
 20
9.25
 30
0.0
 11
10.0
 21
9.25
 31
0.0
  0
LINE
  8
0
 62
     0
 10
10.125
 20
9.25
 30
0.0
 11
10.125
 21
9.25
 31
0.0
  0
LINE
  8
0
 62
     0
 10
10.25
 20
9.25
 30
0.0
 11
10.25
 21
9.25
 31
0.0
  0
LINE
  8
0
 62
     0
 10
10.375
 20
9.25
 30
0.0
 11
10.375
 21
9.25
 31
0.0
  0
LINE
  8
0
 62
     0
 10
10.5
 20
9.25
 30
0.0
 11
10.5
 21
9.25
 31
0.0
  0
LINE
  8
0
 62
     0
 10
10.625
 20
9.25
 30
0.0
 11
10.625
 21
9.25
 31
0.0
  0
LINE
  8
0
 62
     0
 10
10.75
 20
9.25
 30
0.0
 11
10.75
 21
9.25
 31
0.0
  0
LINE
  8
0
 62
     0
 10
9.3125
 20
9.375
 30
0.0
 11
9.3125
 21
9.375
 31
0.0
  0
LINE
  8
0
 62
     0
 10
9.4375
 20
9.375
 30
0.0
 11
9.4375
 21
9.375
 31
0.0
  0
LINE
  8
0
 62
     0
 10
9.5625
 20
9.375
 30
0.0
 11
9.5625
 21
9.375
 31
0.0
  0
LINE
  8
0
 62
     0
 10
9.6875
 20
9.375
 30
0.0
 11
9.6875
 21
9.375
 31
0.0
  0
LINE
  8
0
 62
     0
 10
9.8125
 20
9.375
 30
0.0
 11
9.8125
 21
9.375
 31
0.0
  0
LINE
  8
0
 62
     0
 10
9.9375
 20
9.375
 30
0.0
 11
9.9375
 21
9.375
 31
0.0
  0
LINE
  8
0
 62
     0
 10
10.0625
 20
9.375
 30
0.0
 11
10.0625
 21
9.375
 31
0.0
  0
LINE
  8
0
 62
     0
 10
10.1875
 20
9.375
 30
0.0
 11
10.1875
 21
9.375
 31
0.0
  0
LINE
  8
0
 62
     0
 10
10.3125
 20
9.375
 30
0.0
 11
10.3125
 21
9.375
 31
0.0
  0
LINE
  8
0
 62
     0
 10
10.4375
 20
9.375
 30
0.0
 11
10.4375
 21
9.375
 31
0.0
  0
LINE
  8
0
 62
     0
 10
10.5625
 20
9.375
 30
0.0
 11
10.5625
 21
9.375
 31
0.0
  0
LINE
  8
0
 62
     0
 10
10.6875
 20
9.375
 30
0.0
 11
10.6875
 21
9.375
 31
0.0
  0
LINE
  8
0
 62
     0
 10
10.8125
 20
9.375
 30
0.0
 11
10.8125
 21
9.375
 31
0.0
  0
LINE
  8
0
 62
     0
 10
9.25
 20
9.5
 30
0.0
 11
9.25
 21
9.5
 31
0.0
  0
LINE
  8
0
 62
     0
 10
9.375
 20
9.5
 30
0.0
 11
9.375
 21
9.5
 31
0.0
  0
LINE
  8
0
 62
     0
 10
9.5
 20
9.5
 30
0.0
 11
9.5
 21
9.5
 31
0.0
  0
LINE
  8
0
 62
     0
 10
9.625
 20
9.5
 30
0.0
 11
9.625
 21
9.5
 31
0.0
  0
LINE
  8
0
 62
     0
 10
9.75
 20
9.5
 30
0.0
 11
9.75
 21
9.5
 31
0.0
  0
LINE
  8
0
 62
     0
 10
9.875
 20
9.5
 30
0.0
 11
9.875
 21
9.5
 31
0.0
  0
LINE
  8
0
 62
     0
 10
10.0
 20
9.5
 30
0.0
 11
10.0
 21
9.5
 31
0.0
  0
LINE
  8
0
 62
     0
 10
10.125
 20
9.5
 30
0.0
 11
10.125
 21
9.5
 31
0.0
  0
LINE
  8
0
 62
     0
 10
10.25
 20
9.5
 30
0.0
 11
10.25
 21
9.5
 31
0.0
  0
LINE
  8
0
 62
     0
 10
10.375
 20
9.5
 30
0.0
 11
10.375
 21
9.5
 31
0.0
  0
LINE
  8
0
 62
     0
 10
10.5
 20
9.5
 30
0.0
 11
10.5
 21
9.5
 31
0.0
  0
LINE
  8
0
 62
     0
 10
10.625
 20
9.5
 30
0.0
 11
10.625
 21
9.5
 31
0.0
  0
LINE
  8
0
 62
     0
 10
10.75
 20
9.5
 30
0.0
 11
10.75
 21
9.5
 31
0.0
  0
ENDBLK
  8
0
  0
BLOCK
  8
0
  2
*X12
 70
    65
 10
0.0
 20
0.0
 30
0.0
  3
*X
  0
LINE
  8
0
 62
     0
 10
11.1875
 20
9.125
 30
0.0
 11
11.1875
 21
9.125
 31
0.0
  0
LINE
  8
0
 62
     0
 10
11.3125
 20
9.125
 30
0.0
 11
11.3125
 21
9.125
 31
0.0
  0
LINE
  8
0
 62
     0
 10
11.4375
 20
9.125
 30
0.0
 11
11.4375
 21
9.125
 31
0.0
  0
LINE
  8
0
 62
     0
 10
11.5625
 20
9.125
 30
0.0
 11
11.5625
 21
9.125
 31
0.0
  0
LINE
  8
0
 62
     0
 10
11.6875
 20
9.125
 30
0.0
 11
11.6875
 21
9.125
 31
0.0
  0
LINE
  8
0
 62
     0
 10
11.8125
 20
9.125
 30
0.0
 11
11.8125
 21
9.125
 31
0.0
  0
LINE
  8
0
 62
     0
 10
11.9375
 20
9.125
 30
0.0
 11
11.9375
 21
9.125
 31
0.0
  0
LINE
  8
0
 62
     0
 10
12.0625
 20
9.125
 30
0.0
 11
12.0625
 21
9.125
 31
0.0
  0
LINE
  8
0
 62
     0
 10
11.125
 20
9.25
 30
0.0
 11
11.125
 21
9.25
 31
0.0
  0
LINE
  8
0
 62
     0
 10
11.25
 20
9.25
 30
0.0
 11
11.25
 21
9.25
 31
0.0
  0
LINE
  8
0
 62
     0
 10
11.375
 20
9.25
 30
0.0
 11
11.375
 21
9.25
 31
0.0
  0
LINE
  8
0
 62
     0
 10
11.5
 20
9.25
 30
0.0
 11
11.5
 21
9.25
 31
0.0
  0
LINE
  8
0
 62
     0
 10
11.625
 20
9.25
 30
0.0
 11
11.625
 21
9.25
 31
0.0
  0
LINE
  8
0
 62
     0
 10
11.75
 20
9.25
 30
0.0
 11
11.75
 21
9.25
 31
0.0
  0
LINE
  8
0
 62
     0
 10
11.875
 20
9.25
 30
0.0
 11
11.875
 21
9.25
 31
0.0
  0
LINE
  8
0
 62
     0
 10
11.0625
 20
9.375
 30
0.0
 11
11.0625
 21
9.375
 31
0.0
  0
LINE
  8
0
 62
     0
 10
11.1875
 20
9.375
 30
0.0
 11
11.1875
 21
9.375
 31
0.0
  0
LINE
  8
0
 62
     0
 10
11.3125
 20
9.375
 30
0.0
 11
11.3125
 21
9.375
 31
0.0
  0
LINE
  8
0
 62
     0
 10
11.4375
 20
9.375
 30
0.0
 11
11.4375
 21
9.375
 31
0.0
  0
LINE
  8
0
 62
     0
 10
11.5625
 20
9.375
 30
0.0
 11
11.5625
 21
9.375
 31
0.0
  0
LINE
  8
0
 62
     0
 10
11.6875
 20
9.375
 30
0.0
 11
11.6875
 21
9.375
 31
0.0
  0
LINE
  8
0
 62
     0
 10
11.8125
 20
9.375
 30
0.0
 11
11.8125
 21
9.375
 31
0.0
  0
LINE
  8
0
 62
     0
 10
11.9375
 20
9.375
 30
0.0
 11
11.9375
 21
9.375
 31
0.0
  0
LINE
  8
0
 62
     0
 10
11.0
 20
9.5
 30
0.0
 11
11.0
 21
9.5
 31
0.0
  0
LINE
  8
0
 62
     0
 10
11.125
 20
9.5
 30
0.0
 11
11.125
 21
9.5
 31
0.0
  0
LINE
  8
0
 62
     0
 10
11.25
 20
9.5
 30
0.0
 11
11.25
 21
9.5
 31
0.0
  0
LINE
  8
0
 62
     0
 10
11.375
 20
9.5
 30
0.0
 11
11.375
 21
9.5
 31
0.0
  0
LINE
  8
0
 62
     0
 10
11.5
 20
9.5
 30
0.0
 11
11.5
 21
9.5
 31
0.0
  0
LINE
  8
0
 62
     0
 10
11.625
 20
9.5
 30
0.0
 11
11.625
 21
9.5
 31
0.0
  0
LINE
  8
0
 62
     0
 10
11.75
 20
9.5
 30
0.0
 11
11.75
 21
9.5
 31
0.0
  0
LINE
  8
0
 62
     0
 10
11.875
 20
9.5
 30
0.0
 11
11.875
 21
9.5
 31
0.0
  0
LINE
  8
0
 62
     0
 10
12.0
 20
9.5
 30
0.0
 11
12.0
 21
9.5
 31
0.0
  0
ENDBLK
  8
0
  0
ENDSEC
  0
SECTION
  2
ENTITIES
  0
LINE
  8
DIM
 10
22.313714
 20
11.999715
 30
0.0
 11
24.252742
 21
8.545444
 31
0.0
  0
SOLID
  8
DIM
 10
22.277381
 20
11.979319
 30
0.0
 11
22.350048
 21
12.020111
 31
0.0
 12
22.191341
 22
12.217717
 32
0.0
 13
22.191341
 23
12.217717
 33
0.0
  0
LINE
  8
CLIP
 10
22.387236
 20
13.855717
 30
0.0
 11
22.387236
 21
13.914278
 31
0.0
  0
LINE
  8
CLIP
 10
21.996341
 20
13.855717
 30
0.0
 11
21.996341
 21
13.914278
 31
0.0
  0
ARC
  8
CLIP
 10
22.191788
 20
13.385503
 30
0.0
 40
0.56374
 50
69.714502
 51
110.285498
  0
LINE
  8
CLIP
 10
22.191341
 20
12.217717
 30
0.0
 11
22.256341
 21
12.426206
 31
0.0
  0
LINE
  8
CLIP
 10
22.191341
 20
12.217717
 30
0.0
 11
22.135192
 21
12.398463
 31
0.0
  0
LINE
  8
CLIP
 10
21.996341
 20
13.855717
 30
0.0
 11
22.387236
 21
13.855717
 31
0.0
  0
LINE
  8
CLIP
 10
22.256341
 20
13.855717
 30
0.0
 11
22.256341
 21
13.798935
 31
0.0
  0
LINE
  8
CLIP
 10
22.126341
 20
13.855717
 30
0.0
 11
22.126341
 21
13.758081
 31
0.0
  0
LINE
  8
CLIP
 10
22.126341
 20
13.758081
 30
0.0
 11
22.256341
 21
13.798935
 31
0.0
  0
LINE
  8
CLIP
 10
22.126341
 20
13.695681
 30
0.0
 11
22.256341
 21
13.736535
 31
0.0
  0
LINE
  8
CLIP
 10
22.126341
 20
13.695681
 30
0.0
 11
22.099748
 21
13.718524
 31
0.0
  0
LINE
  8
CLIP
 10
22.099748
 20
13.718524
 30
0.0
 11
22.126341
 21
13.758081
 31
0.0
  0
LINE
  8
CLIP
 10
22.256341
 20
13.736535
 30
0.0
 11
22.285249
 21
13.77682
 31
0.0
  0
LINE
  8
CLIP
 10
22.285249
 20
13.77682
 30
0.0
 11
22.256341
 21
13.798935
 31
0.0
  0
LINE
  8
CLIP
 10
22.126341
 20
13.695681
 30
0.0
 11
22.126341
 21
13.628081
 31
0.0
  0
LINE
  8
CLIP
 10
22.256341
 20
13.736535
 30
0.0
 11
22.256341
 21
13.668935
 31
0.0
  0
LINE
  8
CLIP
 10
22.126341
 20
13.565681
 30
0.0
 11
22.256341
 21
13.606535
 31
0.0
  0
LINE
  8
CLIP
 10
22.126341
 20
13.628081
 30
0.0
 11
22.256341
 21
13.668935
 31
0.0
  0
LINE
  8
CLIP
 10
22.099748
 20
13.588524
 30
0.0
 11
22.126341
 21
13.628081
 31
0.0
  0
LINE
  8
CLIP
 10
22.126341
 20
13.565681
 30
0.0
 11
22.099748
 21
13.588524
 31
0.0
  0
LINE
  8
CLIP
 10
22.256341
 20
13.606535
 30
0.0
 11
22.285249
 21
13.64682
 31
0.0
  0
LINE
  8
CLIP
 10
22.285249
 20
13.64682
 30
0.0
 11
22.256341
 21
13.668935
 31
0.0
  0
LINE
  8
CLIP
 10
22.126341
 20
13.435681
 30
0.0
 11
22.256341
 21
13.476535
 31
0.0
  0
LINE
  8
CLIP
 10
22.126341
 20
13.498081
 30
0.0
 11
22.256341
 21
13.538935
 31
0.0
  0
LINE
  8
CLIP
 10
22.099748
 20
13.458524
 30
0.0
 11
22.126341
 21
13.498081
 31
0.0
  0
LINE
  8
CLIP
 10
22.126341
 20
13.435681
 30
0.0
 11
22.099748
 21
13.458524
 31
0.0
  0
LINE
  8
CLIP
 10
22.256341
 20
13.476535
 30
0.0
 11
22.285249
 21
13.51682
 31
0.0
  0
LINE
  8
CLIP
 10
22.285249
 20
13.51682
 30
0.0
 11
22.256341
 21
13.538935
 31
0.0
  0
LINE
  8
CLIP
 10
22.126341
 20
13.305681
 30
0.0
 11
22.256341
 21
13.346535
 31
0.0
  0
LINE
  8
CLIP
 10
22.126341
 20
13.368081
 30
0.0
 11
22.256341
 21
13.408935
 31
0.0
  0
LINE
  8
CLIP
 10
22.099748
 20
13.328524
 30
0.0
 11
22.126341
 21
13.368081
 31
0.0
  0
LINE
  8
CLIP
 10
22.126341
 20
13.305681
 30
0.0
 11
22.099748
 21
13.328524
 31
0.0
  0
LINE
  8
CLIP
 10
22.256341
 20
13.346535
 30
0.0
 11
22.285249
 21
13.38682
 31
0.0
  0
LINE
  8
CLIP
 10
22.285249
 20
13.38682
 30
0.0
 11
22.256341
 21
13.408935
 31
0.0
  0
LINE
  8
CLIP
 10
22.126341
 20
13.175681
 30
0.0
 11
22.256341
 21
13.216535
 31
0.0
  0
LINE
  8
CLIP
 10
22.126341
 20
13.238081
 30
0.0
 11
22.256341
 21
13.278935
 31
0.0
  0
LINE
  8
CLIP
 10
22.099748
 20
13.198524
 30
0.0
 11
22.126341
 21
13.238081
 31
0.0
  0
LINE
  8
CLIP
 10
22.126341
 20
13.175681
 30
0.0
 11
22.099748
 21
13.198524
 31
0.0
  0
LINE
  8
CLIP
 10
22.256341
 20
13.216535
 30
0.0
 11
22.285249
 21
13.25682
 31
0.0
  0
LINE
  8
CLIP
 10
22.285249
 20
13.25682
 30
0.0
 11
22.256341
 21
13.278935
 31
0.0
  0
LINE
  8
CLIP
 10
22.126341
 20
13.045681
 30
0.0
 11
22.256341
 21
13.086535
 31
0.0
  0
LINE
  8
CLIP
 10
22.126341
 20
13.108081
 30
0.0
 11
22.256341
 21
13.148935
 31
0.0
  0
LINE
  8
CLIP
 10
22.099748
 20
13.068524
 30
0.0
 11
22.126341
 21
13.108081
 31
0.0
  0
LINE
  8
CLIP
 10
22.126341
 20
13.045681
 30
0.0
 11
22.099748
 21
13.068524
 31
0.0
  0
LINE
  8
CLIP
 10
22.256341
 20
13.086535
 30
0.0
 11
22.285249
 21
13.12682
 31
0.0
  0
LINE
  8
CLIP
 10
22.285249
 20
13.12682
 30
0.0
 11
22.256341
 21
13.148935
 31
0.0
  0
LINE
  8
CLIP
 10
22.126341
 20
12.915681
 30
0.0
 11
22.256341
 21
12.956535
 31
0.0
  0
LINE
  8
CLIP
 10
22.126341
 20
12.978081
 30
0.0
 11
22.256341
 21
13.018935
 31
0.0
  0
LINE
  8
CLIP
 10
22.099748
 20
12.938524
 30
0.0
 11
22.126341
 21
12.978081
 31
0.0
  0
LINE
  8
CLIP
 10
22.126341
 20
12.915681
 30
0.0
 11
22.099748
 21
12.938524
 31
0.0
  0
LINE
  8
CLIP
 10
22.256341
 20
12.956535
 30
0.0
 11
22.285249
 21
12.99682
 31
0.0
  0
LINE
  8
CLIP
 10
22.285249
 20
12.99682
 30
0.0
 11
22.256341
 21
13.018935
 31
0.0
  0
LINE
  8
CLIP
 10
22.126341
 20
12.785681
 30
0.0
 11
22.256341
 21
12.826535
 31
0.0
  0
LINE
  8
CLIP
 10
22.126341
 20
12.848081
 30
0.0
 11
22.256341
 21
12.888935
 31
0.0
  0
LINE
  8
CLIP
 10
22.099748
 20
12.808524
 30
0.0
 11
22.126341
 21
12.848081
 31
0.0
  0
LINE
  8
CLIP
 10
22.126341
 20
12.785681
 30
0.0
 11
22.099748
 21
12.808524
 31
0.0
  0
LINE
  8
CLIP
 10
22.256341
 20
12.826535
 30
0.0
 11
22.285249
 21
12.86682
 31
0.0
  0
LINE
  8
CLIP
 10
22.285249
 20
12.86682
 30
0.0
 11
22.256341
 21
12.888935
 31
0.0
  0
LINE
  8
CLIP
 10
22.126341
 20
12.655681
 30
0.0
 11
22.256341
 21
12.696535
 31
0.0
  0
LINE
  8
CLIP
 10
22.126341
 20
12.718081
 30
0.0
 11
22.256341
 21
12.758935
 31
0.0
  0
LINE
  8
CLIP
 10
22.099748
 20
12.678524
 30
0.0
 11
22.126341
 21
12.718081
 31
0.0
  0
LINE
  8
CLIP
 10
22.126341
 20
12.655681
 30
0.0
 11
22.099748
 21
12.678524
 31
0.0
  0
LINE
  8
CLIP
 10
22.256341
 20
12.696535
 30
0.0
 11
22.285249
 21
12.73682
 31
0.0
  0
LINE
  8
CLIP
 10
22.285249
 20
12.73682
 30
0.0
 11
22.256341
 21
12.758935
 31
0.0
  0
LINE
  8
CLIP
 10
22.126341
 20
12.525681
 30
0.0
 11
22.256341
 21
12.566535
 31
0.0
  0
LINE
  8
CLIP
 10
22.126341
 20
12.588081
 30
0.0
 11
22.256341
 21
12.628935
 31
0.0
  0
LINE
  8
CLIP
 10
22.099748
 20
12.548524
 30
0.0
 11
22.126341
 21
12.588081
 31
0.0
  0
LINE
  8
CLIP
 10
22.126341
 20
12.525681
 30
0.0
 11
22.099748
 21
12.548524
 31
0.0
  0
LINE
  8
CLIP
 10
22.256341
 20
12.566535
 30
0.0
 11
22.285249
 21
12.60682
 31
0.0
  0
LINE
  8
CLIP
 10
22.285249
 20
12.60682
 30
0.0
 11
22.256341
 21
12.628935
 31
0.0
  0
LINE
  8
CLIP
 10
22.135192
 20
12.398463
 30
0.0
 11
22.256341
 21
12.436535
 31
0.0
  0
LINE
  8
CLIP
 10
22.126341
 20
12.458081
 30
0.0
 11
22.256341
 21
12.498935
 31
0.0
  0
LINE
  8
CLIP
 10
22.099748
 20
12.418524
 30
0.0
 11
22.126341
 21
12.458081
 31
0.0
  0
LINE
  8
CLIP
 10
22.256341
 20
12.436535
 30
0.0
 11
22.285249
 21
12.47682
 31
0.0
  0
LINE
  8
CLIP
 10
22.285249
 20
12.47682
 30
0.0
 11
22.256341
 21
12.498935
 31
0.0
  0
LINE
  8
CLIP
 10
22.126341
 20
13.565681
 30
0.0
 11
22.126341
 21
13.498081
 31
0.0
  0
LINE
  8
CLIP
 10
22.256341
 20
13.606535
 30
0.0
 11
22.256341
 21
13.538935
 31
0.0
  0
LINE
  8
CLIP
 10
22.256341
 20
13.476535
 30
0.0
 11
22.256341
 21
13.408935
 31
0.0
  0
LINE
  8
CLIP
 10
22.126341
 20
13.435681
 30
0.0
 11
22.126341
 21
13.368081
 31
0.0
  0
LINE
  8
CLIP
 10
22.126341
 20
13.305681
 30
0.0
 11
22.126341
 21
13.238081
 31
0.0
  0
LINE
  8
CLIP
 10
22.256341
 20
13.346535
 30
0.0
 11
22.256341
 21
13.278935
 31
0.0
  0
LINE
  8
CLIP
 10
22.126341
 20
13.175681
 30
0.0
 11
22.126341
 21
13.108081
 31
0.0
  0
LINE
  8
CLIP
 10
22.256341
 20
13.216535
 30
0.0
 11
22.256341
 21
13.148935
 31
0.0
  0
LINE
  8
CLIP
 10
22.126341
 20
13.045681
 30
0.0
 11
22.126341
 21
12.978081
 31
0.0
  0
LINE
  8
CLIP
 10
22.256341
 20
13.086535
 30
0.0
 11
22.256341
 21
13.018935
 31
0.0
  0
LINE
  8
CLIP
 10
22.126341
 20
12.915681
 30
0.0
 11
22.126341
 21
12.848081
 31
0.0
  0
LINE
  8
CLIP
 10
22.256341
 20
12.956535
 30
0.0
 11
22.256341
 21
12.888935
 31
0.0
  0
LINE
  8
CLIP
 10
22.126341
 20
12.785681
 30
0.0
 11
22.126341
 21
12.718081
 31
0.0
  0
LINE
  8
CLIP
 10
22.256341
 20
12.826535
 30
0.0
 11
22.256341
 21
12.758935
 31
0.0
  0
LINE
  8
CLIP
 10
22.126341
 20
12.655681
 30
0.0
 11
22.126341
 21
12.588081
 31
0.0
  0
LINE
  8
CLIP
 10
22.256341
 20
12.696535
 30
0.0
 11
22.256341
 21
12.628935
 31
0.0
  0
LINE
  8
CLIP
 10
22.126341
 20
12.525681
 30
0.0
 11
22.126341
 21
12.458081
 31
0.0
  0
LINE
  8
CLIP
 10
22.256341
 20
12.566535
 30
0.0
 11
22.256341
 21
12.498935
 31
0.0
  0
LINE
  8
CLIP
 10
22.256341
 20
12.436535
 30
0.0
 11
22.256341
 21
12.426206
 31
0.0
  0
LINE
  8
CLIP
 10
22.135192
 20
12.398463
 30
0.0
 11
22.099748
 21
12.418524
 31
0.0
  0
LINE
  8
CLIP
 10
22.535243
 20
13.855717
 30
0.0
 11
22.535243
 21
14.666917
 31
0.0
  0
ARC
  8
CLIP
 10
22.614868
 20
14.666917
 30
0.0
 40
0.079625
 50
61.817033
 51
180.0
  0
LINE
  8
CLIP
 10
22.652474
 20
14.737102
 30
0.0
 11
23.161617
 21
14.464297
 31
0.0
  0
LINE
  8
CLIP
 10
23.161617
 20
14.296258
 30
0.0
 11
23.161617
 21
14.464297
 31
0.0
  0
LINE
  8
CLIP
 10
22.67843
 20
14.723194
 30
0.0
 11
22.7882
 21
14.330885
 31
0.0
  0
LINE
  8
CLIP
 10
22.722281
 20
14.292826
 30
0.0
 11
22.7882
 21
14.330885
 31
0.0
  0
LINE
  8
CLIP
 10
21.588388
 20
13.855717
 30
0.0
 11
22.535243
 21
13.855717
 31
0.0
  0
LINE
  8
PANEL
 10
22.62296
 20
13.960348
 30
0.0
 11
22.635634
 21
14.686413
 31
0.0
  0
ARC
  8
PANEL
 10
22.655585
 20
13.959778
 30
0.0
 40
0.03263
 50
179.0
 51
270.0
  0
LINE
  8
PANEL
 10
22.822208
 20
13.927148
 30
0.0
 11
22.655585
 21
13.927148
 31
0.0
  0
ARC
  8
PANEL
 10
22.822208
 20
13.877618
 30
0.0
 40
0.04953
 50
35.125418
 51
90.0
  0
ARC
  8
PANEL
 10
22.930379
 20
13.953714
 30
0.0
 40
0.082726
 50
215.125418
 51
324.874582
  0
ARC
  8
PANEL
 10
23.038551
 20
13.877618
 30
0.0
 40
0.04953
 50
90.0
 51
144.874582
  0
LINE
  8
PANEL
 10
23.724365
 20
13.927148
 30
0.0
 11
23.038551
 21
13.927148
 31
0.0
  0
ARC
  8
PANEL
 10
23.724376
 20
13.983691
 30
0.0
 40
0.05655
 50
270.0
 51
83.0
  0
LINE
  8
PANEL
 10
23.734193
 20
14.038672
 30
0.0
 11
23.341137
 21
14.093913
 31
0.0
  0
ARC
  8
PANEL
 10
23.349008
 20
14.149912
 30
0.0
 40
0.05655
 50
180.081321
 51
262.0
  0
ARC
  8
PANEL
 10
23.345888
 20
14.149744
 30
0.0
 40
0.05343
 50
90.081321
 51
180.081321
  0
LINE
  8
PANEL
 10
23.324638
 20
13.984999
 30
0.0
 11
23.633826
 21
13.984999
 31
0.0
  0
ARC
  8
PANEL
 10
23.324638
 20
14.049869
 30
0.0
 40
0.06487
 50
185.0
 51
270.0
  0
LINE
  8
PANEL
 10
23.140879
 20
15.405936
 30
0.0
 11
23.260015
 21
14.044215
 31
0.0
  0
ARC
  8
PANEL
 10
23.04388
 20
15.39745
 30
0.0
 40
0.09737
 50
5.0
 51
91.0
  0
LINE
  8
PANEL
 10
21.693894
 20
15.471271
 30
0.0
 11
23.042181
 21
15.494805
 31
0.0
  0
ARC
  8
PANEL
 10
21.695593
 20
15.373915
 30
0.0
 40
0.09737
 50
91.0
 51
176.0
  0
LINE
  8
PANEL
 10
21.497193
 20
13.932512
 30
0.0
 11
21.598461
 21
15.380708
 31
0.0
  0
ARC
  8
PANEL
 10
21.432481
 20
13.937037
 30
0.0
 40
0.06487
 50
269.926498
 51
356.0
  0
ARC
  8
PANEL
 10
32.432481
 20
13.937037
 30
0.0
 40
0.06487
 50
269.926498
 51
356.0
  0
LINE
  8
PANEL
 10
32.497193
 20
13.932512
 30
0.0
 11
32.598461
 21
15.380708
 31
0.0
  0
ARC
  8
PANEL
 10
32.695593
 20
15.373915
 30
0.0
 40
0.09737
 50
91.0
 51
176.0
  0
LINE
  8
PANEL
 10
32.693894
 20
15.471271
 30
0.0
 11
34.042181
 21
15.494805
 31
0.0
  0
ARC
  8
PANEL
 10
34.04388
 20
15.39745
 30
0.0
 40
0.09737
 50
5.0
 51
91.0
  0
LINE
  8
PANEL
 10
34.140879
 20
15.405936
 30
0.0
 11
34.260015
 21
14.044215
 31
0.0
  0
ARC
  8
PANEL
 10
34.324638
 20
14.049869
 30
0.0
 40
0.06487
 50
185.0
 51
270.0
  0
LINE
  8
PANEL
 10
34.324638
 20
13.984999
 30
0.0
 11
34.633826
 21
13.984999
 31
0.0
  0
ARC
  8
PANEL
 10
34.345888
 20
14.149744
 30
0.0
 40
0.05343
 50
90.081321
 51
180.081321
  0
ARC
  8
PANEL
 10
34.349008
 20
14.149912
 30
0.0
 40
0.05655
 50
180.081321
 51
262.0
  0
LINE
  8
PANEL
 10
34.734193
 20
14.038672
 30
0.0
 11
34.341137
 21
14.093913
 31
0.0
  0
ARC
  8
PANEL
 10
34.724376
 20
13.983691
 30
0.0
 40
0.05655
 50
270.0
 51
83.0
  0
LINE
  8
PANEL
 10
34.724365
 20
13.927148
 30
0.0
 11
34.038551
 21
13.927148
 31
0.0
  0
ARC
  8
PANEL
 10
34.038551
 20
13.877618
 30
0.0
 40
0.04953
 50
90.0
 51
144.874582
  0
ARC
  8
PANEL
 10
33.930379
 20
13.953714
 30
0.0
 40
0.082726
 50
215.125418
 51
324.874582
  0
ARC
  8
PANEL
 10
33.822208
 20
13.877618
 30
0.0
 40
0.04953
 50
35.125418
 51
90.0
  0
LINE
  8
PANEL
 10
33.822208
 20
13.927148
 30
0.0
 11
33.655585
 21
13.927148
 31
0.0
  0
ARC
  8
PANEL
 10
33.655585
 20
13.959778
 30
0.0
 40
0.03263
 50
179.0
 51
270.0
  0
LINE
  8
PANEL
 10
33.62296
 20
13.960348
 30
0.0
 11
33.635634
 21
14.686413
 31
0.0
  0
LINE
  8
CLIP
 10
32.588388
 20
13.855717
 30
0.0
 11
33.535243
 21
13.855717
 31
0.0
  0
LINE
  8
CLIP
 10
33.722281
 20
14.292826
 30
0.0
 11
33.7882
 21
14.330885
 31
0.0
  0
LINE
  8
CLIP
 10
33.67843
 20
14.723194
 30
0.0
 11
33.7882
 21
14.330885
 31
0.0
  0
LINE
  8
CLIP
 10
34.161617
 20
14.296258
 30
0.0
 11
34.161617
 21
14.464297
 31
0.0
  0
LINE
  8
CLIP
 10
33.652474
 20
14.737102
 30
0.0
 11
34.161617
 21
14.464297
 31
0.0
  0
ARC
  8
CLIP
 10
33.614868
 20
14.666917
 30
0.0
 40
0.079625
 50
61.817033
 51
180.0
  0
LINE
  8
CLIP
 10
33.535243
 20
13.855717
 30
0.0
 11
33.535243
 21
14.666917
 31
0.0
  0
LINE
  8
CLIP
 10
33.135192
 20
12.398463
 30
0.0
 11
33.099748
 21
12.418524
 31
0.0
  0
LINE
  8
CLIP
 10
33.256341
 20
12.436535
 30
0.0
 11
33.256341
 21
12.426206
 31
0.0
  0
LINE
  8
CLIP
 10
33.256341
 20
12.566535
 30
0.0
 11
33.256341
 21
12.498935
 31
0.0
  0
LINE
  8
CLIP
 10
33.126341
 20
12.525681
 30
0.0
 11
33.126341
 21
12.458081
 31
0.0
  0
LINE
  8
CLIP
 10
33.256341
 20
12.696535
 30
0.0
 11
33.256341
 21
12.628935
 31
0.0
  0
LINE
  8
CLIP
 10
33.126341
 20
12.655681
 30
0.0
 11
33.126341
 21
12.588081
 31
0.0
  0
LINE
  8
CLIP
 10
33.256341
 20
12.826535
 30
0.0
 11
33.256341
 21
12.758935
 31
0.0
  0
LINE
  8
CLIP
 10
33.126341
 20
12.785681
 30
0.0
 11
33.126341
 21
12.718081
 31
0.0
  0
LINE
  8
CLIP
 10
33.256341
 20
12.956535
 30
0.0
 11
33.256341
 21
12.888935
 31
0.0
  0
LINE
  8
CLIP
 10
33.126341
 20
12.915681
 30
0.0
 11
33.126341
 21
12.848081
 31
0.0
  0
LINE
  8
CLIP
 10
33.256341
 20
13.086535
 30
0.0
 11
33.256341
 21
13.018935
 31
0.0
  0
LINE
  8
CLIP
 10
33.126341
 20
13.045681
 30
0.0
 11
33.126341
 21
12.978081
 31
0.0
  0
LINE
  8
CLIP
 10
33.256341
 20
13.216535
 30
0.0
 11
33.256341
 21
13.148935
 31
0.0
  0
LINE
  8
CLIP
 10
33.126341
 20
13.175681
 30
0.0
 11
33.126341
 21
13.108081
 31
0.0
  0
LINE
  8
CLIP
 10
33.256341
 20
13.346535
 30
0.0
 11
33.256341
 21
13.278935
 31
0.0
  0
LINE
  8
CLIP
 10
33.126341
 20
13.305681
 30
0.0
 11
33.126341
 21
13.238081
 31
0.0
  0
LINE
  8
CLIP
 10
33.126341
 20
13.435681
 30
0.0
 11
33.126341
 21
13.368081
 31
0.0
  0
LINE
  8
CLIP
 10
33.256341
 20
13.476535
 30
0.0
 11
33.256341
 21
13.408935
 31
0.0
  0
LINE
  8
CLIP
 10
33.256341
 20
13.606535
 30
0.0
 11
33.256341
 21
13.538935
 31
0.0
  0
LINE
  8
CLIP
 10
33.126341
 20
13.565681
 30
0.0
 11
33.126341
 21
13.498081
 31
0.0
  0
LINE
  8
CLIP
 10
33.285249
 20
12.47682
 30
0.0
 11
33.256341
 21
12.498935
 31
0.0
  0
LINE
  8
CLIP
 10
33.256341
 20
12.436535
 30
0.0
 11
33.285249
 21
12.47682
 31
0.0
  0
LINE
  8
CLIP
 10
33.099748
 20
12.418524
 30
0.0
 11
33.126341
 21
12.458081
 31
0.0
  0
LINE
  8
CLIP
 10
33.126341
 20
12.458081
 30
0.0
 11
33.256341
 21
12.498935
 31
0.0
  0
LINE
  8
CLIP
 10
33.135192
 20
12.398463
 30
0.0
 11
33.256341
 21
12.436535
 31
0.0
  0
LINE
  8
CLIP
 10
33.285249
 20
12.60682
 30
0.0
 11
33.256341
 21
12.628935
 31
0.0
  0
LINE
  8
CLIP
 10
33.256341
 20
12.566535
 30
0.0
 11
33.285249
 21
12.60682
 31
0.0
  0
LINE
  8
CLIP
 10
33.126341
 20
12.525681
 30
0.0
 11
33.099748
 21
12.548524
 31
0.0
  0
LINE
  8
CLIP
 10
33.099748
 20
12.548524
 30
0.0
 11
33.126341
 21
12.588081
 31
0.0
  0
LINE
  8
CLIP
 10
33.126341
 20
12.588081
 30
0.0
 11
33.256341
 21
12.628935
 31
0.0
  0
LINE
  8
CLIP
 10
33.126341
 20
12.525681
 30
0.0
 11
33.256341
 21
12.566535
 31
0.0
  0
LINE
  8
CLIP
 10
33.285249
 20
12.73682
 30
0.0
 11
33.256341
 21
12.758935
 31
0.0
  0
LINE
  8
CLIP
 10
33.256341
 20
12.696535
 30
0.0
 11
33.285249
 21
12.73682
 31
0.0
  0
LINE
  8
CLIP
 10
33.126341
 20
12.655681
 30
0.0
 11
33.099748
 21
12.678524
 31
0.0
  0
LINE
  8
CLIP
 10
33.099748
 20
12.678524
 30
0.0
 11
33.126341
 21
12.718081
 31
0.0
  0
LINE
  8
CLIP
 10
33.126341
 20
12.718081
 30
0.0
 11
33.256341
 21
12.758935
 31
0.0
  0
LINE
  8
CLIP
 10
33.126341
 20
12.655681
 30
0.0
 11
33.256341
 21
12.696535
 31
0.0
  0
LINE
  8
CLIP
 10
33.285249
 20
12.86682
 30
0.0
 11
33.256341
 21
12.888935
 31
0.0
  0
LINE
  8
CLIP
 10
33.256341
 20
12.826535
 30
0.0
 11
33.285249
 21
12.86682
 31
0.0
  0
LINE
  8
CLIP
 10
33.126341
 20
12.785681
 30
0.0
 11
33.099748
 21
12.808524
 31
0.0
  0
LINE
  8
CLIP
 10
33.099748
 20
12.808524
 30
0.0
 11
33.126341
 21
12.848081
 31
0.0
  0
LINE
  8
CLIP
 10
33.126341
 20
12.848081
 30
0.0
 11
33.256341
 21
12.888935
 31
0.0
  0
LINE
  8
CLIP
 10
33.126341
 20
12.785681
 30
0.0
 11
33.256341
 21
12.826535
 31
0.0
  0
LINE
  8
CLIP
 10
33.285249
 20
12.99682
 30
0.0
 11
33.256341
 21
13.018935
 31
0.0
  0
LINE
  8
CLIP
 10
33.256341
 20
12.956535
 30
0.0
 11
33.285249
 21
12.99682
 31
0.0
  0
LINE
  8
CLIP
 10
33.126341
 20
12.915681
 30
0.0
 11
33.099748
 21
12.938524
 31
0.0
  0
LINE
  8
CLIP
 10
33.099748
 20
12.938524
 30
0.0
 11
33.126341
 21
12.978081
 31
0.0
  0
LINE
  8
CLIP
 10
33.126341
 20
12.978081
 30
0.0
 11
33.256341
 21
13.018935
 31
0.0
  0
LINE
  8
CLIP
 10
33.126341
 20
12.915681
 30
0.0
 11
33.256341
 21
12.956535
 31
0.0
  0
LINE
  8
CLIP
 10
33.285249
 20
13.12682
 30
0.0
 11
33.256341
 21
13.148935
 31
0.0
  0
LINE
  8
CLIP
 10
33.256341
 20
13.086535
 30
0.0
 11
33.285249
 21
13.12682
 31
0.0
  0
LINE
  8
CLIP
 10
33.126341
 20
13.045681
 30
0.0
 11
33.099748
 21
13.068524
 31
0.0
  0
LINE
  8
CLIP
 10
33.099748
 20
13.068524
 30
0.0
 11
33.126341
 21
13.108081
 31
0.0
  0
LINE
  8
CLIP
 10
33.126341
 20
13.108081
 30
0.0
 11
33.256341
 21
13.148935
 31
0.0
  0
LINE
  8
CLIP
 10
33.126341
 20
13.045681
 30
0.0
 11
33.256341
 21
13.086535
 31
0.0
  0
LINE
  8
CLIP
 10
33.285249
 20
13.25682
 30
0.0
 11
33.256341
 21
13.278935
 31
0.0
  0
LINE
  8
CLIP
 10
33.256341
 20
13.216535
 30
0.0
 11
33.285249
 21
13.25682
 31
0.0
  0
LINE
  8
CLIP
 10
33.126341
 20
13.175681
 30
0.0
 11
33.099748
 21
13.198524
 31
0.0
  0
LINE
  8
CLIP
 10
33.099748
 20
13.198524
 30
0.0
 11
33.126341
 21
13.238081
 31
0.0
  0
LINE
  8
CLIP
 10
33.126341
 20
13.238081
 30
0.0
 11
33.256341
 21
13.278935
 31
0.0
  0
LINE
  8
CLIP
 10
33.126341
 20
13.175681
 30
0.0
 11
33.256341
 21
13.216535
 31
0.0
  0
LINE
  8
CLIP
 10
33.285249
 20
13.38682
 30
0.0
 11
33.256341
 21
13.408935
 31
0.0
  0
LINE
  8
CLIP
 10
33.256341
 20
13.346535
 30
0.0
 11
33.285249
 21
13.38682
 31
0.0
  0
LINE
  8
CLIP
 10
33.126341
 20
13.305681
 30
0.0
 11
33.099748
 21
13.328524
 31
0.0
  0
LINE
  8
CLIP
 10
33.099748
 20
13.328524
 30
0.0
 11
33.126341
 21
13.368081
 31
0.0
  0
LINE
  8
CLIP
 10
33.126341
 20
13.368081
 30
0.0
 11
33.256341
 21
13.408935
 31
0.0
  0
LINE
  8
CLIP
 10
33.126341
 20
13.305681
 30
0.0
 11
33.256341
 21
13.346535
 31
0.0
  0
LINE
  8
CLIP
 10
33.285249
 20
13.51682
 30
0.0
 11
33.256341
 21
13.538935
 31
0.0
  0
LINE
  8
CLIP
 10
33.256341
 20
13.476535
 30
0.0
 11
33.285249
 21
13.51682
 31
0.0
  0
LINE
  8
CLIP
 10
33.126341
 20
13.435681
 30
0.0
 11
33.099748
 21
13.458524
 31
0.0
  0
LINE
  8
CLIP
 10
33.099748
 20
13.458524
 30
0.0
 11
33.126341
 21
13.498081
 31
0.0
  0
LINE
  8
CLIP
 10
33.126341
 20
13.498081
 30
0.0
 11
33.256341
 21
13.538935
 31
0.0
  0
LINE
  8
CLIP
 10
33.126341
 20
13.435681
 30
0.0
 11
33.256341
 21
13.476535
 31
0.0
  0
LINE
  8
CLIP
 10
33.285249
 20
13.64682
 30
0.0
 11
33.256341
 21
13.668935
 31
0.0
  0
LINE
  8
CLIP
 10
33.256341
 20
13.606535
 30
0.0
 11
33.285249
 21
13.64682
 31
0.0
  0
LINE
  8
CLIP
 10
33.126341
 20
13.565681
 30
0.0
 11
33.099748
 21
13.588524
 31
0.0
  0
LINE
  8
CLIP
 10
33.099748
 20
13.588524
 30
0.0
 11
33.126341
 21
13.628081
 31
0.0
  0
LINE
  8
CLIP
 10
33.126341
 20
13.628081
 30
0.0
 11
33.256341
 21
13.668935
 31
0.0
  0
LINE
  8
CLIP
 10
33.126341
 20
13.565681
 30
0.0
 11
33.256341
 21
13.606535
 31
0.0
  0
LINE
  8
CLIP
 10
33.256341
 20
13.736535
 30
0.0
 11
33.256341
 21
13.668935
 31
0.0
  0
LINE
  8
CLIP
 10
33.126341
 20
13.695681
 30
0.0
 11
33.126341
 21
13.628081
 31
0.0
  0
LINE
  8
CLIP
 10
33.285249
 20
13.77682
 30
0.0
 11
33.256341
 21
13.798935
 31
0.0
  0
LINE
  8
CLIP
 10
33.256341
 20
13.736535
 30
0.0
 11
33.285249
 21
13.77682
 31
0.0
  0
LINE
  8
CLIP
 10
33.099748
 20
13.718524
 30
0.0
 11
33.126341
 21
13.758081
 31
0.0
  0
LINE
  8
CLIP
 10
33.126341
 20
13.695681
 30
0.0
 11
33.099748
 21
13.718524
 31
0.0
  0
LINE
  8
CLIP
 10
33.126341
 20
13.695681
 30
0.0
 11
33.256341
 21
13.736535
 31
0.0
  0
LINE
  8
CLIP
 10
33.126341
 20
13.758081
 30
0.0
 11
33.256341
 21
13.798935
 31
0.0
  0
LINE
  8
CLIP
 10
33.126341
 20
13.855717
 30
0.0
 11
33.126341
 21
13.758081
 31
0.0
  0
LINE
  8
CLIP
 10
33.256341
 20
13.855717
 30
0.0
 11
33.256341
 21
13.798935
 31
0.0
  0
LINE
  8
CLIP
 10
32.996341
 20
13.855717
 30
0.0
 11
33.387236
 21
13.855717
 31
0.0
  0
LINE
  8
CLIP
 10
33.191341
 20
12.217717
 30
0.0
 11
33.135192
 21
12.398463
 31
0.0
  0
LINE
  8
CLIP
 10
33.191341
 20
12.217717
 30
0.0
 11
33.256341
 21
12.426206
 31
0.0
  0
ARC
  8
CLIP
 10
33.191788
 20
13.385503
 30
0.0
 40
0.56374
 50
69.714502
 51
110.285498
  0
LINE
  8
CLIP
 10
32.996341
 20
13.855717
 30
0.0
 11
32.996341
 21
13.914278
 31
0.0
  0
LINE
  8
CLIP
 10
33.387236
 20
13.855717
 30
0.0
 11
33.387236
 21
13.914278
 31
0.0
  0
LINE
  8
PANEL
 10
32.432398
 20
13.872167
 30
0.0
 11
23.345812
 21
14.203174
 31
0.0
  0
LINE
  8
PANEL
 10
36.345623
 20
14.130325
 30
0.0
 11
34.345812
 21
14.203174
 31
0.0
  0
LINE
  8
DIM
 10
25.806531
 20
18.123966
 30
0.0
 11
26.769542
 21
18.123966
 31
0.0
  0
TEXT
  8
DIM
 10
27.019542
 20
17.936466
 30
0.0
 40
0.375
  1
INTEGRAL BATTEN PANEL
  7
ROMAND
  0
LINE
  8
FLASH
 10
13.355439
 20
19.746643
 30
0.0
 11
13.685082
 21
19.989416
 31
0.0
  0
LINE
  8
FLASH
 10
13.355439
 20
19.746643
 30
0.0
 11
14.287563
 21
19.746643
 31
0.0
  0
LINE
  8
FLASH
 10
14.287563
 20
19.746643
 30
0.0
 11
14.81651
 21
18.108447
 31
0.0
  0
LINE
  8
FLASH
 10
14.486263
 20
17.164319
 30
0.0
 11
14.706863
 21
16.767001
 31
0.0
  0
LINE
  8
FLASH
 10
14.431183
 20
17.133737
 30
0.0
 11
14.651784
 21
16.73642
 31
0.0
  0
ARC
  8
FLASH
 10
14.679323
 20
16.75171
 30
0.0
 40
0.0315
 50
209.040095
 51
29.040095
  0
LINE
  8
FLASH
 10
14.81651
 20
18.108447
 30
0.0
 11
14.486263
 21
17.164319
 31
0.0
  0
LINE
  8
CLIP
  6
HIDDEN
 10
14.657186
 20
17.873019
 30
0.0
 11
13.194529
 21
17.873019
 31
0.0
  0
SOLID
  8
DIM
 10
14.529912
 20
18.139476
 30
0.0
 11
14.450768
 21
18.165565
 31
0.0
 12
14.412074
 22
17.915088
 32
0.0
 13
14.412074
 23
17.915088
 33
0.0
  0
LINE
  8
DIM
 10
14.49034
 20
18.152521
 30
0.0
 11
15.558477
 21
21.392887
 31
0.0
  0
LINE
  8
DIM
 10
15.558477
 20
21.392887
 30
0.0
 11
15.849627
 21
21.392887
 31
0.0
  0
TEXT
  8
DIM
 10
16.099627
 20
21.205387
 30
0.0
 40
0.375
  1
FASTENER
  7
ROMAND
  0
LINE
  8
FLASH
 10
14.177654
 20
15.455058
 30
0.0
 11
14.177654
 21
18.455058
 31
0.0
  0
TEXT
  8
DIM
 10
25.063283
 20
8.601784
 30
0.0
 40
0.375
  1
INTEGRAL PANEL CLIP
  7
ROMAND
  0
LINE
  8
BRICK
 10
10.925561
 20
19.592446
 30
0.0
 11
13.925561
 21
19.592446
 31
0.0
  0
LINE
  8
BRICK
 10
13.925561
 20
19.592446
 30
0.0
 11
13.925561
 21
17.592446
 31
0.0
  0
LINE
  8
BRICK
 10
13.925561
 20
17.592446
 30
0.0
 11
10.925561
 21
17.592446
 31
0.0
  0
LINE
  8
BRICK
 10
10.925561
 20
17.592446
 30
0.0
 11
10.925561
 21
19.592446
 31
0.0
  0
LINE
  8
BRICK
 10
13.925561
 20
17.092446
 30
0.0
 11
10.925561
 21
17.092446
 31
0.0
  0
LINE
  8
BRICK
 10
10.925561
 20
15.092446
 30
0.0
 11
10.925561
 21
17.092446
 31
0.0
  0
LINE
  8
BRICK
 10
13.925561
 20
15.092446
 30
0.0
 11
10.925561
 21
15.092446
 31
0.0
  0
LINE
  8
BRICK
 10
13.925561
 20
17.092446
 30
0.0
 11
13.925561
 21
15.092446
 31
0.0
  0
LINE
  8
BRICK
 10
13.925561
 20
14.592446
 30
0.0
 11
10.925561
 21
14.592446
 31
0.0
  0
LINE
  8
BRICK
 10
10.925561
 20
12.092446
 30
0.0
 11
13.925561
 21
12.092446
 31
0.0
  0
LINE
  8
BRICK
 10
13.925561
 20
12.092446
 30
0.0
 11
13.925561
 21
10.092446
 31
0.0
  0
LINE
  8
BRICK
 10
13.925561
 20
10.092446
 30
0.0
 11
10.925561
 21
10.092446
 31
0.0
  0
LINE
  8
BRICK
 10
10.925561
 20
10.092446
 30
0.0
 11
10.925561
 21
12.092446
 31
0.0
  0
LINE
  8
BRICK
 10
13.925561
 20
12.092446
 30
0.0
 11
10.925561
 21
12.092446
 31
0.0
  0
LINE
  8
BRICK
 10
10.925561
 20
12.592446
 30
0.0
 11
10.925561
 21
14.592446
 31
0.0
  0
LINE
  8
BRICK
 10
13.925561
 20
12.592446
 30
0.0
 11
10.925561
 21
12.592446
 31
0.0
  0
LINE
  8
BRICK
 10
13.925561
 20
14.592446
 30
0.0
 11
13.925561
 21
12.592446
 31
0.0
  0
LINE
  8
BRICK
 10
13.925561
 20
7.092446
 30
0.0
 11
13.925561
 21
6.406692
 31
0.0
  0
LINE
  8
BRICK
 10
10.925561
 20
6.40869
 30
0.0
 11
10.925561
 21
7.092446
 31
0.0
  0
LINE
  8
BRICK
 10
13.925561
 20
7.092446
 30
0.0
 11
12.913719
 21
7.092446
 31
0.0
  0
LINE
  8
BRICK
 10
10.925561
 20
7.592446
 30
0.0
 11
10.925561
 21
9.592446
 31
0.0
  0
LINE
  8
BRICK
 10
13.925561
 20
7.592446
 30
0.0
 11
12.721853
 21
7.592446
 31
0.0
  0
LINE
  8
BRICK
 10
13.925561
 20
9.592446
 30
0.0
 11
13.925561
 21
7.592446
 31
0.0
  0
LINE
  8
BRICK
 10
10.925561
 20
9.592446
 30
0.0
 11
13.925561
 21
9.592446
 31
0.0
  0
LINE
  8
0
 10
12.721853
 20
7.592446
 30
0.0
 11
13.176673
 21
6.407191
 31
0.0
  0
LINE
  8
0
 10
12.304044
 20
5.135342
 30
0.0
 11
12.721853
 21
7.592446
 31
0.0
  0
LINE
  8
0
 10
12.304044
 20
5.135342
 30
0.0
 11
11.777025
 21
6.408123
 31
0.0
  0
LINE
  8
0
 10
11.777025
 20
6.408123
 30
0.0
 11
8.429578
 21
6.410352
 31
0.0
  0
LINE
  8
BRICK
 10
12.603253
 20
7.092446
 30
0.0
 11
10.925561
 21
7.092446
 31
0.0
  0
LINE
  8
BRICK
 10
10.925561
 20
20.092446
 30
0.0
 11
13.925561
 21
20.092446
 31
0.0
  0
LINE
  8
BRICK
 10
13.925561
 20
22.092446
 30
0.0
 11
13.925561
 21
20.092446
 31
0.0
  0
LINE
  8
BRICK
 10
10.925561
 20
20.092446
 30
0.0
 11
10.925561
 21
22.092446
 31
0.0
  0
LINE
  8
BRICK
 10
13.925561
 20
22.092446
 30
0.0
 11
10.925561
 21
22.092446
 31
0.0
  0
LINE
  8
BRICK
 10
13.925561
 20
22.592446
 30
0.0
 11
10.925561
 21
22.592446
 31
0.0
  0
LINE
  8
BRICK
 10
10.925561
 20
22.592446
 30
0.0
 11
10.925561
 21
24.592446
 31
0.0
  0
LINE
  8
BRICK
 10
10.925561
 20
24.592446
 30
0.0
 11
13.925561
 21
24.592446
 31
0.0
  0
LINE
  8
BRICK
 10
13.925561
 20
24.592446
 30
0.0
 11
13.925561
 21
22.592446
 31
0.0
  0
INSERT
  8
BRICK
  2
*X0
 10
2.23598
 20
-6.359641
 30
0.0
  0
INSERT
  8
BRICK
  2
*X1
 10
2.23598
 20
-6.359641
 30
0.0
  0
INSERT
  8
BRICK
  2
*X2
 10
2.23598
 20
-6.359641
 30
0.0
  0
INSERT
  8
BRICK
  2
*X3
 10
2.23598
 20
-6.359641
 30
0.0
  0
ARC
  8
CLIP
 10
10.725144
 20
22.342446
 30
0.0
 40
0.320417
 50
308.717988
 51
51.282012
  0
ARC
  8
CLIP
 10
10.725144
 20
19.842446
 30
0.0
 40
0.320417
 50
308.717988
 51
51.282012
  0
ARC
  8
CLIP
 10
10.725144
 20
17.342446
 30
0.0
 40
0.320417
 50
308.717988
 51
51.282012
  0
ARC
  8
CLIP
 10
10.725144
 20
14.842446
 30
0.0
 40
0.320417
 50
308.717988
 51
51.282012
  0
ARC
  8
CLIP
 10
10.725144
 20
12.342446
 30
0.0
 40
0.320417
 50
308.717988
 51
51.282012
  0
ARC
  8
CLIP
 10
10.725144
 20
9.842446
 30
0.0
 40
0.320417
 50
308.717988
 51
51.282012
  0
ARC
  8
CLIP
 10
10.725144
 20
7.342446
 30
0.0
 40
0.320417
 50
308.717988
 51
51.282012
  0
ARC
  8
CLIP
 10
14.125977
 20
7.342446
 30
0.0
 40
0.320417
 50
128.717988
 51
231.282012
  0
ARC
  8
CLIP
 10
14.125977
 20
9.842446
 30
0.0
 40
0.320417
 50
128.717988
 51
231.282012
  0
ARC
  8
CLIP
 10
14.125977
 20
12.342446
 30
0.0
 40
0.320417
 50
128.717988
 51
231.282012
  0
ARC
  8
CLIP
 10
14.125977
 20
14.842446
 30
0.0
 40
0.320417
 50
128.717988
 51
231.282012
  0
ARC
  8
CLIP
 10
14.125977
 20
17.342446
 30
0.0
 40
0.320417
 50
128.717988
 51
231.282012
  0
ARC
  8
CLIP
 10
14.125977
 20
19.842446
 30
0.0
 40
0.320417
 50
128.717988
 51
231.282012
  0
ARC
  8
CLIP
 10
14.125977
 20
22.342446
 30
0.0
 40
0.320417
 50
128.717988
 51
231.282012
  0
INSERT
  8
CLIP
  2
*X4
 10
2.23598
 20
-6.359641
 30
0.0
  0
INSERT
  8
CLIP
  2
*X5
 10
2.23598
 20
-6.359641
 30
0.0
  0
INSERT
  8
CLIP
  2
*X6
 10
2.23598
 20
-6.359641
 30
0.0
  0
INSERT
  8
CLIP
  2
*X7
 10
2.23598
 20
-6.359641
 30
0.0
  0
INSERT
  8
CLIP
  2
*X8
 10
2.23598
 20
-6.359641
 30
0.0
  0
INSERT
  8
CLIP
  2
*X9
 10
2.23598
 20
-6.359641
 30
0.0
  0
INSERT
  8
CLIP
  2
*X7
 10
2.23598
 20
-3.859641
 30
0.0
  0
ARC
  8
CLIP
 10
14.125977
 20
24.842446
 30
0.0
 40
0.320417
 50
128.717988
 51
231.282012
  0
ARC
  8
CLIP
 10
10.725144
 20
24.842446
 30
0.0
 40
0.320417
 50
308.717988
 51
51.282012
  0
LINE
  8
CLIP
 10
10.212788
 20
25.092446
 30
0.0
 11
10.212788
 21
26.088326
 31
0.0
  0
LINE
  8
CLIP
 10
10.212788
 20
25.092446
 30
0.0
 11
12.480946
 21
25.092446
 31
0.0
  0
LINE
  8
CLIP
 10
14.749104
 20
25.092446
 30
0.0
 11
12.480946
 21
25.092446
 31
0.0
  0
LINE
  8
CLIP
 10
14.749104
 20
25.092446
 30
0.0
 11
14.749104
 21
26.088326
 31
0.0
  0
ARC
  8
CLIP
 10
12.480946
 20
21.704731
 30
0.0
 40
4.93563
 50
62.642066
 51
117.357934
  0
INSERT
  8
CLIP
  2
*X10
 10
1.825625
 20
-2.006984
 30
0.0
  0
LINE
  8
BRICK
 10
12.688274
 20
7.592446
 30
0.0
 11
10.925561
 21
7.592446
 31
0.0
  0
INSERT
  8
CLIP
  2
*X11
 10
1.825625
 20
-2.006984
 30
0.0
  0
INSERT
  8
CLIP
  2
*X12
 10
1.825625
 20
-2.006984
 30
0.0
  0
TEXT
  8
DIM
 10
28.852831
 20
11.091064
 30
0.0
 40
0.375
  1
30# ROOFING FELT
  7
ROMAND
  0
LINE
  8
DIM
 10
27.787268
 20
11.271465
 30
0.0
 11
28.537268
 21
11.271465
 31
0.0
  0
TEXT
  8
DIM
 10
25.047964
 20
8.012056
 30
0.0
 40
0.375
  1
W/FASTENERS
  7
ROMAND
  0
LINE
  8
BRICK
 62
     1
 10
12.100709
 20
5.626408
 30
0.0
 11
12.446312
 21
5.972011
 31
0.0
  0
LINE
  8
BRICK
 62
     1
 10
13.094814
 20
6.620513
 30
0.0
 11
13.566747
 21
7.092446
 31
0.0
  0
LINE
  8
BRICK
 62
     1
 10
11.790125
 20
6.376484
 30
0.0
 11
12.506087
 21
7.092446
 31
0.0
  0
LINE
  8
BRICK
 62
     1
 10
10.925561
 20
6.57258
 30
0.0
 11
11.445427
 21
7.092446
 31
0.0
  0
LINE
  8
WOOD
 10
14.009139
 20
13.419471
 30
0.0
 11
35.098379
 21
13.419471
 31
0.0
  0
LINE
  8
WOOD
 10
14.009139
 20
13.106971
 30
0.0
 11
35.399887
 21
13.106971
 31
0.0
  0
LINE
  8
PANEL
 10
14.39951
 20
15.390884
 30
0.0
 11
14.39951
 21
13.931304
 31
0.0
  0
LINE
  8
WOOD
 10
14.009139
 20
13.419471
 30
0.0
 11
14.009139
 21
12.794471
 31
0.0
  0
LINE
  8
FLASH
 10
17.125133
 20
13.765884
 30
0.0
 11
14.250133
 21
13.765884
 31
0.0
  0
LINE
  8
FLASH
 10
14.250133
 20
13.765884
 30
0.0
 11
14.250133
 21
15.390884
 31
0.0
  0
LINE
  8
FLASH
 10
14.250133
 20
15.390884
 30
0.0
 11
15.722491
 21
15.390884
 31
0.0
  0
LINE
  8
FLASH
 10
15.802654
 20
15.330058
 30
0.0
 11
15.365154
 21
15.330058
 31
0.0
  0
ARC
  8
FLASH
 10
15.802654
 20
15.392558
 30
0.0
 40
0.0625
 50
270.0
 51
90.0
  0
SOLID
  8
DIM
 10
24.308341
 20
14.398513
 30
0.0
 11
24.231352
 21
14.430406
 31
0.0
 12
24.174167
 22
14.183493
 32
0.0
 13
24.174167
 23
14.183493
 33
0.0
  0
LINE
  8
DIM
 10
24.269846
 20
14.41446
 30
0.0
 11
25.806531
 21
18.123966
 31
0.0
  0
LINE
  8
DIM
 10
26.693663
 20
10.083658
 30
0.0
 11
27.203306
 21
10.083658
 31
0.0
  0
LINE
  8
0
 10
35.947921
 20
8.437027
 30
0.0
 11
35.947921
 21
12.896255
 31
0.0
  0
LINE
  8
0
 10
37.200844
 20
13.775537
 30
0.0
 11
34.743461
 21
13.359363
 31
0.0
  0
LINE
  8
0
 10
34.743461
 20
13.359363
 30
0.0
 11
35.947921
 21
12.896255
 31
0.0
  0
LINE
  8
0
 10
35.947921
 20
14.295311
 30
0.0
 11
35.947921
 21
17.602829
 31
0.0
  0
LINE
  8
0
 10
37.200844
 20
13.775537
 30
0.0
 11
35.947921
 21
14.295311
 31
0.0
  0
SOLID
  8
DIM
 10
14.715423
 20
14.464484
 30
0.0
 11
14.706033
 21
14.547287
 31
0.0
 12
14.46232
 22
14.477715
 32
0.0
 13
14.46232
 23
14.477715
 33
0.0
  0
LINE
  8
DIM
 10
14.710728
 20
14.505886
 30
0.0
 11
17.951971
 21
14.873452
 31
0.0
  0
LINE
  8
DIM
 10
17.951971
 20
14.873452
 30
0.0
 11
21.491076
 21
19.225193
 31
0.0
  0
LINE
  8
DIM
 10
21.491076
 20
19.225193
 30
0.0
 11
22.099434
 21
19.225193
 31
0.0
  0
LINE
  8
FLASH
 10
15.802654
 20
15.455058
 30
0.0
 11
14.177654
 21
15.455058
 31
0.0
  0
LINE
  8
WOOD
 10
14.009139
 20
12.794471
 30
0.0
 11
35.947921
 21
12.794471
 31
0.0
  0
SOLID
  8
DIM
 10
15.526426
 20
15.640435
 30
0.0
 11
15.460488
 21
15.691391
 31
0.0
 12
15.340588
 22
15.468097
 32
0.0
 13
15.340588
 23
15.468097
 33
0.0
  0
LINE
  8
DIM
 10
15.493457
 20
15.665913
 30
0.0
 11
20.343952
 21
21.942564
 31
0.0
  0
LINE
  8
DIM
 10
20.343952
 20
21.942564
 30
0.0
 11
21.351735
 21
21.942564
 31
0.0
  0
TEXT
  8
DIM
 10
27.376984
 20
9.88396
 30
0.0
 40
0.375
  1
PLYWOOD DECKING
  7
ROMAND
  0
TEXT
  8
DIM
 10
21.59643
 20
21.396668
 30
0.0
 40
0.375
  1
W/ "J" CLOSURE
  7
ROMAND
  0
TEXT
  8
DIM
 10
21.602632
 20
22.002155
 30
0.0
 40
0.375
  1
PA-502 RAKE DETAIL
  7
ROMAND
  0
SOLID
  8
DIM
 10
27.468691
 20
13.308052
 30
0.0
 11
27.551266
 21
13.319264
 31
0.0
 12
27.476342
 22
13.561385
 32
0.0
 13
27.476342
 23
13.561385
 33
0.0
  0
LINE
  8
DIM
 10
27.509978
 20
13.313658
 30
0.0
 11
27.787268
 21
11.271465
 31
0.0
  0
SOLID
  8
DIM
 10
26.091068
 20
12.541461
 30
0.0
 11
26.17232
 21
12.559969
 31
0.0
 12
26.076169
 22
12.794471
 32
0.0
 13
26.076169
 23
12.794471
 33
0.0
  0
LINE
  8
DIM
 10
26.131694
 20
12.550715
 30
0.0
 11
26.693663
 21
10.083658
 31
0.0
  0
LINE
  8
DIM
 10
24.252742
 20
8.545444
 30
0.0
 11
24.938959
 21
8.545444
 31
0.0
  0
LINE
  8
PANEL
 10
14.39951
 20
13.931304
 30
0.0
 11
21.432398
 21
13.872167
 31
0.0
  0
LINE
  8
0
 10
14.932426
 20
13.765884
 30
0.0
 11
14.932426
 21
13.926823
 31
0.0
  0
LINE
  8
0
 10
15.432426
 20
13.765884
 30
0.0
 11
15.432426
 21
13.922619
 31
0.0
  0
SOLID
  8
0
 10
14.932426
 20
13.926823
 30
0.0
 11
15.432426
 21
13.922619
 31
0.0
 12
14.932426
 22
13.765884
 32
0.0
 13
15.432426
 23
13.765884
 33
0.0
  0
SOLID
  8
DIM
 10
15.232989
 20
13.493546
 30
0.0
 11
15.314348
 21
13.511581
 31
0.0
 12
15.219563
 22
13.746639
 32
0.0
 13
15.219563
 23
13.746639
 33
0.0
  0
LINE
  8
DIM
 10
15.273668
 20
13.502564
 30
0.0
 11
16.234487
 21
9.168201
 31
0.0
  0
LINE
  8
DIM
 10
16.234487
 20
9.168201
 30
0.0
 11
16.999584
 21
9.168201
 31
0.0
  0
TEXT
  8
DIM
 10
17.249584
 20
8.980701
 30
0.0
 40
0.375
  1
SEALANT
  7
ROMAND
  0
LINE
  8
0
 10
13.176673
 20
6.407191
 30
0.0
 11
17.926673
 21
6.407191
 31
0.0
  0
LINE
  8
CLIP
 10
16.41593
 20
13.506622
 30
0.0
 11
16.416423
 21
13.450465
 31
0.0
  0
LINE
  8
CLIP
 10
16.307285
 20
13.579732
 30
0.0
 11
16.307778
 21
13.523574
 31
0.0
  0
LINE
  8
CLIP
 10
16.307778
 20
13.523574
 30
0.0
 11
16.415476
 21
13.55846
 31
0.0
  0
LINE
  8
CLIP
 10
16.41593
 20
13.506622
 30
0.0
 11
16.308232
 21
13.471736
 31
0.0
  0
LINE
  8
CLIP
 10
16.442495
 20
13.216312
 30
0.0
 11
16.418319
 21
13.234473
 31
0.0
  0
LINE
  8
CLIP
 10
16.420669
 20
12.966643
 30
0.0
 11
16.320304
 21
12.934132
 31
0.0
  0
LINE
  8
CLIP
 10
16.368267
 20
12.784389
 30
0.0
 11
16.320304
 21
12.934132
 31
0.0
  0
LINE
  8
CLIP
 10
16.419267
 20
13.126477
 30
0.0
 11
16.311569
 21
13.09159
 31
0.0
  0
LINE
  8
CLIP
 10
16.419721
 20
13.074639
 30
0.0
 11
16.312023
 21
13.039752
 31
0.0
  0
LINE
  8
CLIP
 10
16.418774
 20
13.182635
 30
0.0
 11
16.311076
 21
13.147748
 31
0.0
  0
LINE
  8
CLIP
 10
16.420214
 20
13.018481
 30
0.0
 11
16.312516
 21
12.983595
 31
0.0
  0
LINE
  8
CLIP
 10
16.417826
 20
13.290631
 30
0.0
 11
16.418319
 21
13.234473
 31
0.0
  0
LINE
  8
CLIP
 10
16.416878
 20
13.398627
 30
0.0
 11
16.440599
 21
13.432303
 31
0.0
  0
LINE
  8
CLIP
 10
16.440599
 20
13.432303
 30
0.0
 11
16.416423
 21
13.450465
 31
0.0
  0
LINE
  8
CLIP
 10
16.28787
 20
13.274527
 30
0.0
 11
16.309673
 21
13.307582
 31
0.0
  0
LINE
  8
CLIP
 10
16.310128
 20
13.255744
 30
0.0
 11
16.28787
 21
13.274527
 31
0.0
  0
LINE
  8
CLIP
 10
16.417826
 20
13.290631
 30
0.0
 11
16.441547
 21
13.324307
 31
0.0
  0
LINE
  8
CLIP
 10
16.441547
 20
13.324307
 30
0.0
 11
16.417371
 21
13.342469
 31
0.0
  0
LINE
  8
CLIP
 10
16.416878
 20
13.398627
 30
0.0
 11
16.417371
 21
13.342469
 31
0.0
  0
LINE
  8
CLIP
 10
16.30918
 20
13.36374
 30
0.0
 11
16.309673
 21
13.307582
 31
0.0
  0
LINE
  8
CLIP
 10
16.416878
 20
13.398627
 30
0.0
 11
16.30918
 21
13.36374
 31
0.0
  0
LINE
  8
CLIP
 10
16.417371
 20
13.342469
 30
0.0
 11
16.309673
 21
13.307582
 31
0.0
  0
LINE
  8
CLIP
 10
16.417826
 20
13.290631
 30
0.0
 11
16.310128
 21
13.255744
 31
0.0
  0
LINE
  8
CLIP
 10
16.285974
 20
13.490518
 30
0.0
 11
16.307778
 21
13.523574
 31
0.0
  0
LINE
  8
CLIP
 10
16.308232
 20
13.471736
 30
0.0
 11
16.285974
 21
13.490518
 31
0.0
  0
LINE
  8
CLIP
 10
16.286922
 20
13.382522
 30
0.0
 11
16.308725
 21
13.415578
 31
0.0
  0
LINE
  8
CLIP
 10
16.308232
 20
13.471736
 30
0.0
 11
16.308725
 21
13.415578
 31
0.0
  0
LINE
  8
CLIP
 10
16.30918
 20
13.36374
 30
0.0
 11
16.286922
 21
13.382522
 31
0.0
  0
LINE
  8
CLIP
 10
16.416423
 20
13.450465
 30
0.0
 11
16.308725
 21
13.415578
 31
0.0
  0
LINE
  8
CLIP
 10
16.311076
 20
13.147748
 30
0.0
 11
16.311569
 21
13.09159
 31
0.0
  0
LINE
  8
CLIP
 10
16.289765
 20
13.058535
 30
0.0
 11
16.311569
 21
13.09159
 31
0.0
  0
LINE
  8
CLIP
 10
16.312023
 20
13.039752
 30
0.0
 11
16.289765
 21
13.058535
 31
0.0
  0
LINE
  8
CLIP
 10
16.312023
 20
13.039752
 30
0.0
 11
16.312516
 21
12.983595
 31
0.0
  0
LINE
  8
CLIP
 10
16.288817
 20
13.166531
 30
0.0
 11
16.310621
 21
13.199586
 31
0.0
  0
LINE
  8
CLIP
 10
16.311076
 20
13.147748
 30
0.0
 11
16.288817
 21
13.166531
 31
0.0
  0
LINE
  8
CLIP
 10
16.290713
 20
12.950539
 30
0.0
 11
16.312516
 21
12.983595
 31
0.0
  0
LINE
  8
CLIP
 10
16.320304
 20
12.934132
 30
0.0
 11
16.290713
 21
12.950539
 31
0.0
  0
LINE
  8
CLIP
 10
16.418319
 20
13.234473
 30
0.0
 11
16.310621
 21
13.199586
 31
0.0
  0
LINE
  8
CLIP
 10
16.310128
 20
13.255744
 30
0.0
 11
16.310621
 21
13.199586
 31
0.0
  0
LINE
  8
CLIP
 10
16.368267
 20
12.784389
 30
0.0
 11
16.420745
 21
12.958062
 31
0.0
  0
LINE
  8
CLIP
 10
16.419721
 20
13.074639
 30
0.0
 11
16.443443
 21
13.108316
 31
0.0
  0
LINE
  8
CLIP
 10
16.419721
 20
13.074639
 30
0.0
 11
16.420214
 21
13.018481
 31
0.0
  0
LINE
  8
CLIP
 10
16.443443
 20
13.108316
 30
0.0
 11
16.419267
 21
13.126477
 31
0.0
  0
LINE
  8
CLIP
 10
16.418774
 20
13.182635
 30
0.0
 11
16.419267
 21
13.126477
 31
0.0
  0
LINE
  8
CLIP
 10
16.420669
 20
12.966643
 30
0.0
 11
16.420745
 21
12.958062
 31
0.0
  0
LINE
  8
CLIP
 10
16.44439
 20
13.00032
 30
0.0
 11
16.420214
 21
13.018481
 31
0.0
  0
LINE
  8
CLIP
 10
16.420669
 20
12.966643
 30
0.0
 11
16.44439
 21
13.00032
 31
0.0
  0
LINE
  8
CLIP
 10
16.418774
 20
13.182635
 30
0.0
 11
16.442495
 21
13.216312
 31
0.0
  0
LINE
  8
CLIP
 10
16.414983
 20
13.614618
 30
0.0
 11
16.438704
 21
13.648295
 31
0.0
  0
LINE
  8
CLIP
 10
16.438704
 20
13.648295
 30
0.0
 11
16.414528
 21
13.666456
 31
0.0
  0
LINE
  8
CLIP
 10
16.414983
 20
13.614618
 30
0.0
 11
16.415476
 21
13.55846
 31
0.0
  0
LINE
  8
CLIP
 10
16.41593
 20
13.506622
 30
0.0
 11
16.439651
 21
13.540299
 31
0.0
  0
LINE
  8
CLIP
 10
16.439651
 20
13.540299
 30
0.0
 11
16.415476
 21
13.55846
 31
0.0
  0
LINE
  8
CLIP
 10
16.522422
 20
13.763759
 30
0.0
 11
16.521995
 21
13.812408
 31
0.0
  0
LINE
  8
CLIP
 10
16.307285
 20
13.579732
 30
0.0
 11
16.285026
 21
13.598514
 31
0.0
  0
LINE
  8
CLIP
 10
16.285026
 20
13.598514
 30
0.0
 11
16.30683
 21
13.63157
 31
0.0
  0
LINE
  8
CLIP
 10
16.197691
 20
13.760909
 30
0.0
 11
16.197264
 21
13.809558
 31
0.0
  0
LINE
  8
CLIP
 10
16.305686
 20
13.761857
 30
0.0
 11
16.30683
 21
13.63157
 31
0.0
  0
LINE
  8
CLIP
 10
16.197691
 20
13.760909
 30
0.0
 11
16.522422
 21
13.763759
 31
0.0
  0
ARC
  8
CLIP
 10
16.363484
 20
13.37171
 30
0.0
 40
0.468338
 50
70.21731
 51
110.788306
  0
LINE
  8
CLIP
 10
16.30683
 20
13.63157
 30
0.0
 11
16.414528
 21
13.666456
 31
0.0
  0
LINE
  8
CLIP
 10
16.307285
 20
13.579732
 30
0.0
 11
16.414983
 21
13.614618
 31
0.0
  0
LINE
  8
CLIP
 10
16.413682
 20
13.762805
 30
0.0
 11
16.414528
 21
13.666456
 31
0.0
  0
TEXT
  8
DIM
 10
22.316728
 20
19.452024
 30
0.0
 40
0.375
  1
FIELD-FORM PANEL LEG TO
  7
ROMAND
  0
TEXT
  8
DIM
 10
22.316728
 20
18.844881
 30
0.0
 40
0.375
  1
I.D. OF "J" CLOSURE
  7
ROMAND
  0
POLYLINE
  8
0
 66
     1
 10
0.0
 20
0.0
 30
0.0
 40
0.05
 41
0.05
  0
VERTEX
  8
0
 10
14.058061
 20
18.737973
 30
0.0
  0
VERTEX
  8
0
 10
14.058061
 20
13.609661
 30
0.0
  0
SEQEND
  8
0
  0
POLYLINE
  8
0
 66
     1
 10
0.0
 20
0.0
 30
0.0
 40
0.05
 41
0.05
  0
VERTEX
  8
0
 10
36.221396
 20
13.609661
 30
0.0
 50
71.0
  0
VERTEX
  8
0
 10
14.058061
 20
13.609661
 30
0.0
 50
341.0
  0
SEQEND
  8
0
  0
ENDSEC
  0
EOF
